Oops, an error
Loading. Please wait.

Outshined Tab

version 1
version 1

Whole song

Interactive

35,399 views 942 this week
no commentswrite comment
1 2 3 4 5
x 8
add to favorites
launch autoscroll
font size
0
reset
how to read this tab
guitar tuner
backing track
0:00
0:00
×
Best way to learn
"Outshined"
Autoscroll
slow
fast
+/-
esc
set tempo
stop
Author
OUTSHINED - SOUNDGARDEN
tabbed by tom kelly(tuhu27@hotmail.com)

I think this is pretty accurate. hope its a help anyway.


[Intro/Verse]

e|--------------------------------   ---------|
B|--------------------------------   ---------|last time before
G|-------------------5------------   ------5b-| verse starts
D|-------------------5------------   --5b-----|
A|---0-0-0-3-5-3-0-3-3--6-5-3-5-3-   ---------|
D|---0-0-0-3-5-3-0-3----6-5-3-5-3-   ---------|

[Pre-Chorus]
not entirely accurate but my best as yet
e|-----------------------------------------7/10-10-10----|
B|---7-7--7----7-7--7--7---------------------------------|
G|---7-7--7----7-7--7--7--- repeat   ------4/7--7--7-----|
D|---7-7--5----x-x--x--x--- as necessary --------------0-|
A|---5-5--5----9-9--7--5--- then  ---------------------0-|
D|-----------------------------------------------------0-|

(x = if you can manage it try not to make this string sound,
otherwise just let it hit the 7th fret)

[Chorus]
e|-------------------------------------------------------------------|
B|-------------------------------------------------------------------|
G|-------------------------------------------------------------------|
D|-7-5-0-3-5-0---3-5-0-3--0^3-6-6-6-5-3-0--10-0-0-10--10-10--0-10-10-|
A|-7-5-0-3-5-0---3-5-0-3--0^3-6-6-6-5-3-0--10-0-0-10--10-10--0-10-10-|
D|-7-5-0-3-5-0---3-5-0-3--0^3-6-6-6-5-3-0--10-0-0-10--10-10--0-10-10-|

e|-------------------------------------------------|
B|-------------------------------------------------|
G|-------------------------------------------------|
D|--10-10--------10-10---------10-10-------10-10---|
A|--10-10--------10-10---------10-10-------10-10---|
D|--10-10--------10-10---------10-10-------10-10---|
   outshined     outshined    outshined   outshined


[Post-Chorus Solo]
e|--------------------------------------------------------|
B|--------------------------------------------------------|
G|--5~------5-7--7-5-7-7-5------------------------------5-|
D|--5~------5-7--7-5-7-7-5--5-4-5-7-5-4-----------5-5/7---|
A|------7~------------------------------3-3/5-5/7---------|
D|--------------------------------------------------------|

e|--------------8-10---8b--5^8^5--------------------------|
B|-------8-8/10------------------8^6^8--8b-8-6^8-6-6^8^6--|
G|---7/9------------------------------------------------7-|
D|--------------------------------------------------------|
A|--------------------------------------------------------|
D|--------------------------------------------------------|

e|--------------------------------------------------------| this bit he is singing
B|-------6-8-6---------6-8-8b-6---------------------------| over. repeat as necesarry,
G|---7-7-------7---7-7------------------------------------| and theres a couple of
D|--------------------------------------------------------| small changes throughout.
A|-------------------------------- not worth tabbing tho--|
D|--------------------------------------------------------|

after next chorus another riff goes like this:
e|---------------------------------------------|
B|---------------------------------------6-5-6-|
G|----------------------5-7-7-5---5-4-5--5-5-5-|
D|-5^7--5-4--5-4-7-5-4--5-5-5-5---5-5-5--------|
A|-5----5-5--5-5-5-5-5-------------------------|
D|---------------------------------------------|



************************************

| b  Bend
| /  Slide up
| x  Dead note
| ~  Vibrato

************************************
Suggest correction
comments
print report bad tab
guest
You may want to rate the tab now too:
select rating
Wanna post a correction for this tab? Suggest correction