Oops, an error
Loading. Please wait.

Outshined Tab

version 4
version 4

Whole song

Interactive

141,850 views 237 this week
16 commentsread comments
1 2 3 4 5
excellent!
x 31
add to favorites
launch autoscroll
font size
0
reset
how to read this tab
guitar tuner
Autoscroll
slow
fast
+/-
esc
set tempo
stop
Help us to improve Ultimate-Guitar.com Take our survey!
×
Contributor
Tuning
D A D G B E
#----------------------------------PLEASE NOTE---------------------------------#
#This file is the author's own work and represents their interpretation of the #
#song. You may only use this file for private study, scholarship, or research. #
#------------------------------------------------------------------------------##

                                    OUTSHINED
                           As recorded by SoundGarden
                      (From the 1991 Album BADMOTORFINGER)

Words and Music by Chris Cornell
Arranged by SoundGarden


Gtr I (D A D G B E) - 'Kim'
Gtr II (D A D G B E) - 'Chris'
Gtr III (D A D G B E) - 'Solo Gtr.'


[Intro]

  Moderately Slow Rock Q=94
                           D5  F5G5F5D5F5   G#G5F5
 7/4
  Gtr I
                           PM|           ~
  H.      H.       Q       E E E E E E E Q  E E Q  +E    3x
E|----------------------||--------------------------------||
B|----------------------||o------------------------------o||
G|----------------------||--------------------------------||
D|----------------------||--------------------------------||
A|----------------------||o-0-0-3-5-3-0-3-3--6-5-3--(3)/-o||
D|-----------------10\--||--0-0-3-5-3-0-3----6-5-3--(3)/--||
 |
 | Gtr II
 |                          PM|           ~
 | H.      H.       Q       E E E E E E E Q  E E Q  +E    3x
E|----------------------||--------------------------------||
B|----------------------||o------------------------------o||
G|----------------------||--------------------------------||
D|----------------------||--------------------------------||
A|------------------8\--||o-0-0-3-5-3-0-3-3--6-5-3--(3)/-o||
D|----------------------||--0-0-3-5-3-0-3----6-5-3--(3)/--||


   D5  F5G5F5D5F5         G#5 G5
   PM|
   E E E E E E E E    +E  +Q    E    +E  +E
E|----------------------------------------------||
B|----------------------------------------------||
G|------------------------------5b7==(5)-(5)r/--||
D|---------------5b6==(5)r(5)-------------------||
A|-0-0-3-5-3-0-3--------------------------------||
D|-0-0-3-5-3-0-3--------------------------------||
 |
 | PM|           ~~~~
 | E E E E E E E Q         E  E Q.
E|----------------------------------------------||
B|----------------------------------------------||
G|----------------------------------------------||
D|----------------------------------------------||
A|-0-0-3-5-3-0-3-3---------6--5-----------------||
D|-0-0-3-5-3-0-3-----------6--5-3tr5------------||


[Verse 1 and 2]

     D5    F5 G5 F5  D5F5     G#G5    F5
     Gtr III
                  ~~~
      E  E  E  E  Q.      Q.     +Q     Q
E||-------------------------------------------|
B||o------------------------------------------|
G||--------10-12-10---------------------------|
D||--12-12---------------12-----(12)\---------|
A||o------------------------------------------|
D||-------------------------------------------|
 |
 |   Gtrs I, II
 |    PM|                 ~~~
 |    E  E  E  E  E  E E  Q   E   E   Q   +E
E||-------------------------------------------|
B||o------------------------------------------|
G||-------------------------------------------|
D||-------------------------------------------|
A||o--0--0--3--5--3--0-3--3---6---5---3---(3)-|
D||---0--0--3--5--3--0-3------6---5---3---(3)-|


   D5    F5 G5 F5     D5F5            G#G5    F5        D5    F5 G5 F5  D5F5     G#G5    F5
                                                                     ~~~
    E  E  E  E  Q        +E    E  +Q     +Q     Q        E  E  E  E  Q.      Q.     +Q     Q
E|----------------------------------------------------|--------------------------------------------|
B|----------------------------------------------------|--------------------------------------------|
G|-------10-12-12b13====(12)r-10-(10)---(10)\---------|-------10-12-10-----------------------------|
D|-12-12----------------------------------------------|-12-12---------------12-----(12)\-----------|
A|----------------------------------------------------|--------------------------------------------|
D|----------------------------------------------------|--------------------------------------------|
 |
 |  PM|                        ~~                        PM|                 ~~~
 |  E  E  E  E  E     E   E    Q      E   E   Q   +E     E  E  E  E  E  E E  Q   E   E   Q   +E
E|----------------------------------------------------|--------------------------------------------|
B|----------------------------------------------------|--------------------------------------------|
G|----------------------------------------------------|--------------------------------------------|
D|----------------------------------------------------|--------------------------------------------|
A|--0--0--3--5--3-----0---3----3------6---5---3---(3)-|--0--0--3--5--3--0-3--3---6---5---3---(3)---|
D|--0--0--3--5--3-----0---3-----------6---5---3---(3)-|--0--0--3--5--3--0-3------6---5---3---(3)---|


   D5    F5 G5 F5     D5F5            G#5   G5 F5
   Gtr III
    E  E  E  E  Q        +E    E  +E   S  S  E  S  S  Q
E|----------------------------------------------------------|
B|------------------------------------------12-------10-----|
G|-------10-12-12b13====(12)r-10-(10)-10s12----12s10--------|
D|-12-12----------------------------------------------------|
A|----------------------------------------------------------|
D|----------------------------------------------------------|
 |
 | Gtr I
 |  PM|                        ~~
 |  E  E  E  E  E     E   E    Q       E     E  Q       +E
E|----------------------------------------------------------|
B|----------------------------------------------------------|
G|----------------------------------------------------------|
D|----------------------------------------------------------|
A|--0--0--3--5--3-----0---3----3-------6-----5--3-------(3)-|
D|--0--0--3--5--3-----0---3------------6-----5--3-------(3)-|
 |
 | Gtr II
 |  PM|                        ~~
 |  E  E  E  E  E     E   E    Q       E     E  Q       +E
E|----------------------------------------------------------|
B|----------------------------------------------------------|
G|----------------------------------------------------------|
D|----------------------------------------------------------|
A|--0--0--3--5--3-----0---3----3-------6-----5--3-------(3)-|
D|--0--0--3--5--3-----0---3------------6-----5--3-------(3)-|


   D5         F5   G5F5   D5F5          G#5 G5F5               D5    F5 G5 F5  D5F5     G#G5    F5
         ~~~~~~~~~~~~~~~~~~~~~~~~~~~~~~~                                    ~~~
    +S   E.    +Q     +Q.      +E   +H              +Q          E  E  E  E  Q.      Q.     +Q     Q
E|-----------------------------------------------------------|--------------------------------------------|
B|-(10)------------------------------------------------------|--------------------------------------------|
G|-----------------------------------------------------------|-------10-12-10-----------------------------|
D|------12----(12)---(12)-----(12)-(12)------------(12)\-----|-12-12---------------12-----(12)\-----------|
A|-----------------------------------------------------------|--------------------------------------------|
D|-----------------------------------------------------------|--------------------------------------------|
 |
 |   PM-----|                   ~~~~                            PM|                 ~~~
 |   E      E   E  E   E  E E   Q       E a E Q.                E  E  E  E  E  E E  Q   E   E   Q   +E
E|-----------------------------------------------------------|--------------------------------------------|
B|-----------------------------------------------------------|--------------------------------------------|
G|-----------------------------------------------------------|--------------------------------------------|
D|--------------------------------------------3tr5-----------|--------------------------------------------|
A|---0------0---3--5---3--0-3---3---------3h5----------------|--0--0--3--5--3--0-3--3---6---5---3---(3)---|
D|---0------0---3--5---3--0-3-----------6--------------------|--0--0--3--5--3--0-3------6---5---3---(3)---|
 |
 |   PM-----|                   ~~~~                            PM|                 ~~~
 |   E      E   E  E   E  E E   Q       E   E Q          +E     E  E  E  E  E  E E  Q   E   E   Q   +E
E|-----------------------------------------------------------|--------------------------------------------|
B|-----------------------------------------------------------|--------------------------------------------|
G|-----------------------------------------------------------|--------------------------------------------|
D|-----------------------------------------------------------|--------------------------------------------|
A|---0------0---3--5---3--0-3---3-------6---5-3----------(3)-|--0--0--3--5--3--0-3--3---6---5---3---(3)---|
D|---0------0---3--5---3--0-3-----------6---5-3----------(3)-|--0--0--3--5--3--0-3------6---5---3---(3)---|


   D5    F5 G5 F5     D5F5            G#G5    F5        D5    F5 G5           F5  D5F5        G#G5F5
                                                                               ~~~
    E  E  E  E  Q        +E    E  +Q     +Q     Q        E  E  e  s      +S    Q.      E  +H         +Q
E|----------------------------------------------------|------------------------------------------------------|
B|----------------------------------------------------|------------------------------------------------------|
G|-------10-12-12b13====(12)r-10-(10)---(10)\---------|-------10-12b14==(12)r-10-----------------------------|
D|-12-12----------------------------------------------|-12-12-------------------------12-(12)------(12)\-----|
A|----------------------------------------------------|------------------------------------------------------|
D|----------------------------------------------------|------------------------------------------------------|
 |
 |  PM|                        ~~                        PM|                           ~~
 |  E  E  E  E  E     E   E    Q      E   E   Q   +E     E  E  E  E            E  E E  Q      E E Q      +E
E|----------------------------------------------------|------------------------------------------------------|
B|----------------------------------------------------|------------------------------------------------------|
G|----------------------------------------------------|------------------------------------------------------|
D|----------------------------------------------------|------------------------------------------------------|
A|--0--0--3--5--3-----0---3----3------6---5---3---(3)-|--0--0--3--5------------3--0-3--3------6-5-3------(3)-|
D|--0--0--3--5--3-----0---3-----------6---5---3---(3)-|--0--0--3--5------------3--0-3---------6-5-3------(3)-|
 |
 |  PM|                        ~~                        PM|                           ~~
 |  E  E  E  E  E     E   E    Q      E   E   Q   +E     E  E  E  E            E  E E  Q      E E Q       +E
E|----------------------------------------------------|------------------------------------------------------|
B|----------------------------------------------------|------------------------------------------------------|
G|----------------------------------------------------|------------------------------------------------------|
D|----------------------------------------------------|------------------------------------------------------|
A|--0--0--3--5--3-----0---3----3------6---5---3---(3)-|--0--0--3--5------------3--0-3--3------6-5-3------(3)-|
D|--0--0--3--5--3-----0---3-----------6---5---3---(3)-|--0--0--3--5------------3--0-3---------6-5-3------(3)-|


   D5    F5 G5 F5     D5F5             G#G5    F5
    E  E  E  E  Q        +E    E   +Q     +Q      Q
E|--------------------------------------------------------|
B|--------------------------------------------------------|
G|-------10-12-12b13====(12)r-10--(10)---(10)\------------|
D|-12-12--------------------------------------------------|
A|--------------------------------------------------------|
D|--------------------------------------------------------|
 |
 |  PM|                        ~~~
 |  E  E  E  E  E     E   E    Q       E   E   Q    +E
E|--------------------------------------------------------|
B|--------------------------------------------------------|
G|--------------------------------------------------------|
D|--------------------------------------------------------|
A|--0--0--3--5--3-----0---3----3-------6---5---3----(3)---|
D|--0--0--3--5--3-----0---3------------6---5---3----(3)---|
 |
 |  PM|                        ~~~
 |  E  E  E  E  E     E   E    Q.          E   Q.
E|--------------------------------------------------------|
B|--------------------------------------------------------|
G|---------------------------------------------5----------|
D|---------------------------------------------5----------|
A|--0--0--3--5--3-----0---3----3-----------5--------------|
D|--0--0--3--5--3-----0---3-------------------------------|


              [Pre-Chorus]

   D5          D        D/G
  4/4
   Gtrs I, II
   W           E. E +S  E +H
E|----------||-------------------|
B|----------||-7--7-(7)-7-(7)----|
G|-7--------||-7--7-(7)-7-(7)----|
D|-7--------||-------------------|
A|-5--------||-5--5-(5)----------|
D|-0--------||----------5-(5)----|


   D/F#     Em/G    Dm/F      D        D/G
   E. E +S   E  +S  E.  E E   E. E +S  E +H
E|--------------------------|-------------------||
B|-7--7-(7)------------10p0-|-7--7-(7)-7-(7)----||
G|-7--7-(7)--9--(9)S7-------|-7--7-(7)-7-(7)----||
D|--------------------------|-------------------||
A|-9--9-(9)-10-(10)S8-------|-5--5-(5)----------||
D|--------------------------|----------5-(5)----||


   D/F#     Em/G    Dm/F      D        D/G
   E. E +S   E  +S  E.  E E   E. E +S  E +H
E|--------------------------|-------------------|
B|-7--7-(7)------------10p0-|-7--7-(7)-7-(7)----|
G|-7--7-(7)--9--(9)S7-------|-7--7-(7)-7-(7)----|
D|--------------------------|-------------------|
A|-9--9-(9)-10-(10)S8-------|-5--5-(5)----------|
D|--------------------------|----------5-(5)----|


   D/F#     Em/G    Dm/F                     D5
   E. E +S   E  +S  E.  Q     S  S  S  S  E  E +H
E|-------------------------|--------------------------|
B|-7--7-(7)------------10--|-10s12-12-12-12/----------|
G|-7--7-(7)--9--(9)S7------|--------------------------|
D|-------------------------|--7s=9--9--9--9/----------|
A|-9--9-(9)-10-(10)S8------|-----------------0-(0)----|
D|-------------------------|-----------------0-(0)----|


[Chorus]

   A5G5D5F5 G5D5   G5F5D5F5      D5F5
   Gtr I
   E E E Q  E Q    E E E Q   S S S E.
E|---------------|-----------x-x------|
B|---------------|-----------x-x------|
G|---------------|-----------x-x------|
D|---------------|-----------x-x------|
A|-7-5-0-3--5-0--|-5-3-0-3---x-x-0-3--|
D|-7-5-0-3--5-0--|-5-3-0-3---x-x-0-3--|
 |
 | Gtr II
 | E E E Q  E Q    E E E Q.      S E.
E|---------------|--------------------|
B|---------------|--------------------|
G|---------------|--------------------|
D|---------------|--------------------|
A|-7-5-0-3--5-0--|-5-3-0-3-------0-3--|
D|-7-5-0-3--5-0--|-5-3-0-3-------0-3--|


   G#5   G5 F5D5
   E E E Q  E Q     S  S S  S  +S   S  S S  E  E Q
E|---------------|------------------------------------|
B|---------------|------------------------------------|
G|---------------|------------------------------------|
D|---------------|------------------------------------|
A|-6-6-6-5--3-0--|------------------------------------|
D|-6-6-6-5--3-0--|-10-10-0-10-(10)-10-10-0-10-10-0----|
|
|                  PM-----------------------------|
| E E E Q  E Q     S  S S  S  +S   S  S S  E  E E E

E|---------------|------------------------------------|
B|---------------|------------------------------------|
G|---------------|------------------------------------|
D|---------------|------------------------------------|
A|-6-6-6-5--3-0--|------------------------------------|
D|-6-6-6-5--3-0--|-10--0-0-10-(10)-10--0-0-10-10-0-0--|


   A5G5D5F5 G5D5   G5F5D5F5      D5F5
   E E E Q  E Q    E E E Q   S S S E.
E|---------------|-----------x-x------|
B|---------------|-----------x-x------|
G|---------------|-----------x-x------|
D|---------------|-----------x-x------|
A|-7-5-0-3--5-0--|-5-3-0-3---x-x-0-3--|
D|-7-5-0-3--5-0--|-5-3-0-3---x-x-0-3--|
|
 | E E E Q  E Q    E E E Q.      S E.
E|---------------|--------------------|
B|---------------|--------------------|
G|---------------|--------------------|
D|---------------|--------------------|
A|-7-5-0-3--5-0--|-5-3-0-3-------0-3--|
D|-7-5-0-3--5-0--|-5-3-0-3-------0-3--|


   G#5   G5 F5D5
   E E E Q  E Q     S  S S  S  +S   S  S S  E  E Q
E|---------------|------------------------------------|
B|---------------|------------------------------------|
G|---------------|------------------------------------|
D|---------------|------------------------------------|
A|-6-6-6-5--3-0--|------------------------------------|
D|-6-6-6-5--3-0--|-10-10-0-10-(10)-10-10-0-10-10-0----|
|
|                  PM-----------------------------|
| E E E Q  E Q     S  S S  S  +S   S  S S  E  E E E

E|---------------|------------------------------------|
B|---------------|------------------------------------|
G|---------------|------------------------------------|
D|---------------|------------------------------------|
A|-6-6-6-5--3-0--|------------------------------------|
D|-6-6-6-5--3-0--|-10--0-0-10-(10)-10--0-0-10-10-0-0--|


    S  S S  S  +S   S  S S  E  E Q
E|-----------------------------------|
B|-----------------------------------|
G|-----------------------------------|
D|-----------------------------------|
A|-----------------------------------|
D|-10-10-0-10-(10)-10-10-0-10-10-0---|
 |
 |  PM-----------------------------|
 |  S  S S  S  +S   S  S S  E  E E E
E|-----------------------------------|
B|-----------------------------------|
G|-----------------------------------|
D|-----------------------------------|
A|-----------------------------------|
D|-10--0-0-10-(10)-10--0-0-10-10-0-0-|


                                          [Interlude]
 1.
  C5                                       D5  F5G5F5  D5F5      G#G5F5
 7/4
                                        Gtr III
                                                    ~~~~~~~~~~~~~
   E  E E  E  E E  E  E E  E  E E   Q      H       +Q.     E +H.
E|---------------------------------------||----------------------------------|
B|---------------------------------------||-5-------(5)----------------------|
G|---------------------------------------||-5-------(5)-----7-(7)------------|
D|-10-10---10-10---10-10---10-10---------||----------------------------------|
A|-10-10---10-10---10-10---10-10---------||----------------------------------|
D|-10-10---10-10---10-10---10-10---/19\--||----------------------------------|
 |
 |                                       Gtrs I, II
 |                                                          ~
 |  E  E E  E  E E  E  E E  E  E E   Q      E E E E  E  E E Q     E E Q  +E
E|---------------------------------------||----------------------------------|
B|---------------------------------------||----------------------------------|
G|---------------------------------------||----------------------------------|
D|-10-10---10-10---10-10---10-10---------||----------------------------------|
A|-10-10---10-10---10-10---10-10---------||-0-0-3-5--3--0-3-3-----6-5-3--(3)-|
D|-10-10---10-10---10-10---10-10---/19\--||-0-0-3-5--3--0-3-------6-5-3--(3)-|


   Gtr III
                                                    ~
   E e S S   +E  e e S S S E. E S E   S S E     S   H       E S S E S S E S S E S     S  Q
E|------------------------------------------------|-------------------------------------10-----|
B|-5-7---7b8r(7)-5-7-7-5---5----------------------|---------------------------8-9s===10--------|
G|-5-7---7b8r(7)-5-7-7-5---5----------------------|---------------------5-7s9------------------|
D|----------------------------7-5-4---7-5-4-------|---------------4-5s7------------------------|
A|----------------------------------------------5-|-3-------5-3h5------------------------------|
D|------------------------------------------------|--------------------------------------------|
 |
 | Gtr I
 |                       ~                          PM|             ~~
 | E E E      E  E E E   Q    E E   Q       +E      E E E E E E   E Q     E   E Q.
E|------------------------------------------------|--------------------------------------------|
B|------------------------------------------------|--------------------------------------------|
G|------------------------------------------------|--------------------------------------------|
D|------------------------------------------------|--------------------------------------------|
A|-0-0-3------5--3-0-3---3----6-5---3-------(3)---|-0-0-3-5-3-0---3-3-----6---5----------------|
D|-0-0-3------5--3-0-3--------6-5---3-------(3)---|-0-0-3-5-3-0---3-------6---5-3tr5-----------|
 |
 | Gtr II
 |                       ~                                          ~~
 | E E E      E  E E E   Q    E E   Q       +E      E E E E E E   E Q     E   E Q          +E
E|------------------------------------------------|--------------------------------------------|
B|------------------------------------------------|--------------------------------------------|
G|------------------------------------------------|--------------------------------------------|
D|------------------------------------------------|--------------------------------------------|
A|-0-0-3------5--3-0-3---3----6-5---3-------(3)---|-0-0-3-5-3-0---3-3-----6---5-3----------(3)-|
D|-0-0-3------5--3-0-3--------6-5---3-------(3)---|-0-0-3-5-3-0---3-------6---5-3----------(3)-|


    +Q.      E     +E   T  T  S  S  T  T  S     S  S   S  S      +S      E    T     S.  E   S      +S
E|-(10)--------------------------------------------------------------------------------------------------||
B|----------12b14r(12)-10h13p10-------------------------------------------------------------------------o||
G|------------------------------12-10h12p10-------10--12-12b14==(12)r---12---10----12--10--12b14==(12)r--||
D|---------------------------------------------12--------------------------------------------------------||
A|------------------------------------------------------------------------------------------------------o||
D|-------------------------------------------------------------------------------------------------------||
 |
 |   PM-|                                 ~~~~~
 |   E  E E  E      E   E        E        Q               E           a  E    Q.
E|-------------------------------------------------------------------------------------------------------||
B|------------------------------------------------------------------------------------------------------o||
G|-------------------------------------------------------------------------------------------------------||
D|----------------------------------------------------------------------------3tr5-----------------------||
A|---0--0-3--5------3---0--------3--------3---------------------------3h=5------------------------------o||
D|---0--0-3--5------3---0--------3------------------------6----------------------------------------------||
 |
 |   PM-|                                                                     ~~~~~~~~~~~~~
 |   E  E E  E      E   E        E        E       +E     +E             +E    E        +Q
E|-------------------------------------------------------------------------------------------------------||
B|------------------------------------------------------------------------------------------------------o||
G|----------------------------------------5b7=====(5)r===(5)b7==========(5)r-----------------------------||
D|----------------------------------------------------------------------------3--------(3)---------------||
A|---0--0-3--5------3---0--------3----------------------------------------------------------------------o||
D|---0--0-3--5------3---0--------3-----------------------------------------------------------------------||


   2.
   C5
   Gtrs I, II
    E  E E  E  E E  E  E E  E  Q   +Q
E|--------------------------------------|
B|--------------------------------------|
G|--------------------------------------|
D|-10-10---10-10---10-10---10-10--(10)--|
A|-10-10---10-10---10-10---10-10--(10)--|
D|-10-10---10-10---10-10---10-10--(10)--|


    Bridge
     D5   G5/DD      G5/D     D5 G5/D
    4/4
     Q.   E E Q.     E. E +S  Q  E. E +S
E||----------------|----------------------|
B||o---------------|----------------------|
G||----------------|----------------------|
D||--7----5---4----|-5--4-(4)-7--5--4-(4)-|
A||o-5----5---5----|-5--5-(5)-5--5--5-(5)-|
D||----------------|----------------------|


   C5/G5       C5/G   C5/G       F5/G     G5
   E. E +S  Q  Q.     E. E +S  E E. E +S  E  3x
E|------------------|------------------------||-||
B|------------------|------------6--5-(5)---o||-||
G|-5--7-(7)-7--5----|-5--4-(4)-5-5--5-(5)-7--||-||
D|-5--5-(5)-5--5----|-5--5-(5)-5-5--5-(5)-5--||-||
A|------------------|-----------------------o||-||
D|------------------|------------------------||-||


[Pre-Chorus II]

   D        D/G        D/F#     Em/G    Dm/F
   E. E +S  E +H       E. E +S   E  +S  E.  E E
E|-------------------|--------------------------|
B|-7--7-(7)-7-(7)----|-7--7-(7)------------10p0-|
G|-7--7-(7)-7-(7)----|-7--7-(7)--9--(9)S7-------|
D|-------------------|--------------------------|
A|-5--5-(5)----------|-9--9-(9)-10-(10)S8-------|
D|----------5-(5)----|--------------------------|


   D        D/G        D/F#     Em/G    Dm/F
   E. E +S  E +H       E. E +S   E  +S  E.  E E
E|-------------------|--------------------------|
B|-7--7-(7)-7-(7)----|-7--7-(7)------------10p0-|
G|-7--7-(7)-7-(7)----|-7--7-(7)--9--(9)S7-------|
D|-------------------|--------------------------|
A|-5--5-(5)----------|-9--9-(9)-10-(10)S8-------|
D|----------5-(5)----|--------------------------|


   D        D/G        D/F#     Em/G    Dm/F
   E. E +S  E +H       E. E +S   E  +S  E.  Q
E|-------------------|--------------------------|
B|-7--7-(7)-7-(7)----|-7--7-(7)------------10---|
G|-7--7-(7)-7-(7)----|-7--7-(7)--9--(9)S7-------|
D|-------------------|--------------------------|
A|-5--5-(5)----------|-9--9-(9)-10-(10)S8-------|
D|----------5-(5)----|--------------------------|


                              [Out-Chorus]

                   D5          A5G5D5F5 G5D5
   Gtr I
    S  S  S  S  E  E +H        E E E Q  E Q
E|--------------------------||---------------|
B|-10s12-12-12-12/----------||---------------|
G|--------------------------||---------------|
D|--7s=9--9--9--9/----------||---------------|
A|-----------------0-(0)----||-7-5-0-3--5-0--|
D|-----------------0-(0)----||-7-5-0-3--5-0--|
 |
 | Gtr II
 |  S  S  S  S  E  E +H        E E E Q  E Q
E|--------------------------||---------------|
B|-10s12-12-12-12/----------||---------------|
G|--------------------------||---------------|
D|--7s=9--9--9--9/----------||---------------|
A|-----------------0-(0)----||-7-5-0-3--5-0--|
D|-----------------0-(0)----||-7-5-0-3--5-0--|


   G5F5D5F5      D5F5   G#5   G5 F5D5
   E E E Q   S S S E.   E E E Q  E Q
E|-----------x-x------|---------------|
B|-----------x-x------|---------------|
G|-----------x-x------|---------------|
D|-----------x-x------|---------------|
A|-5-3-0-3---x-x-0-3--|-6-6-6-5--3-0--|
D|-5-3-0-3---x-x-0-3--|-6-6-6-5--3-0--|
 |
 | E E E Q.      S E.   E E E Q  E Q
E|--------------------|---------------|
B|--------------------|---------------|
G|--------------------|---------------|
D|--------------------|---------------|
A|-5-3-0-3-------0-3--|-6-6-6-5--3-0--|
D|-5-3-0-3-------0-3--|-6-6-6-5--3-0--|


                                       A5G5D5F5 G5D5
    S  S S  S  +S   S  S S  E  E Q     E E E Q  E Q
E|-----------------------------------|---------------|
B|-----------------------------------|---------------|
G|-----------------------------------|---------------|
D|-----------------------------------|---------------|
A|-----------------------------------|-7-5-0-3--5-0--|
D|-10-10-0-10-(10)-10-10-0-10-10-0---|-7-5-0-3--5-0--|
 |
 |  PM-----------------------------|
 |  S  S S  S  +S   S  S S  E  E E E   E E E Q  E Q
E|-----------------------------------|---------------|
B|-----------------------------------|---------------|
G|-----------------------------------|---------------|
D|-----------------------------------|---------------|
A|-----------------------------------|-7-5-0-3--5-0--|
D|-10--0-0-10-(10)-10--0-0-10-10-0-0-|-7-5-0-3--5-0--|


   G5F5D5F5      D5F5   G#5   G5 F5D5
   E E E Q   S S S E.   E E E Q  E Q
E|-----------x-x------|----------------|
B|-----------x-x------|----------------|
G|-----------x-x------|----------------|
D|-----------x-x------|----------------|
A|-5-3-0-3---x-x-0-3--|-6-6-6-5--3-0---|
D|-5-3-0-3---x-x-0-3--|-6-6-6-5--3-0---|
 |
 | E E E Q.      S E.   E E E Q  E Q
E|--------------------|----------------|
B|--------------------|----------------|
G|--------------------|----------------|
D|--------------------|----------------|
A|-5-3-0-3-------0-3--|-6-6-6-5--3-0---|
D|-5-3-0-3-------0-3--|-6-6-6-5--3-0---|


    S  S S  S  +S   S  S S  E  E Q
E|-----------------------------------|
B|-----------------------------------|
G|-----------------------------------|
D|-----------------------------------|
A|-----------------------------------|
D|-10-10-0-10-(10)-10-10-0-10-10-0---|
 |
 |  PM--------------------------------
 |  S  S S  S  +S   S  S S  E  E E E
E|-----------------------------------|
B|-----------------------------------|
G|-----------------------------------|
D|-----------------------------------|
A|-----------------------------------|
D|-10--0-0-10-(10)-10--0-0-10-10-0-0-|


                                       C5
                                      6/4
    S  S S  S  +S   S  S S  E  E Q      E  E E  E  E E  E  E E  E  Q
E|-----------------------------------|-----------------------------------|
B|-----------------------------------|-----------------------------------|
G|-----------------------------------|-----------------------------------|
D|-----------------------------------|-10-10---10-10---10-10---10-10\----|
A|-----------------------------------|-10-10---10-10---10-10---10-10\----|
D|-10-10-0-10-(10)-10-10-0-10-10-0---|-10-10---10-10---10-10---10-10\----|
 |
 |---------------------------------|
 |  S  S S  S  +S   S  S S  E  E E E    E  E E  E  E E  E  E E  E  Q
E|-----------------------------------|-----------------------------------|
B|-----------------------------------|-----------------------------------|
G|-----------------------------------|-----------------------------------|
D|-----------------------------------|-10-10---10-10---10-10---10-10\----|
A|-----------------------------------|-10-10---10-10---10-10---10-10\----|
D|-10--0-0-10-(10)-10--0-0-10-10-0-0-|-10-10---10-10---10-10---10-10\----|


   D5    F5 D5F5   G#5   G5 F5D5
  5/8             4/4
   S S S E. S E.   E E E Q  E Q
E|---------------|---------------|
B|---------------|---------------|
G|---------------|---------------|
D|---------------|---------------|
A|-0-0-0-3--0-3--|-6-6-6-5--3-0--|
D|-0-0-0-3--0-3--|-6-6-6-5--3-0--|
 |
 | S S S E. S E.   E E E Q  E Q
E|---------------|---------------|
B|---------------|---------------|
G|---------------|---------------|
D|---------------|---------------|
A|-0-0-0-3--0-3--|-6-6-6-5--3-0--|
D|-0-0-0-3--0-3--|-6-6-6-5--3-0--|


                                       A5G5D5F5 G5D5
    S  S S  S  +S   S  S S  E  E Q     E E E Q  E Q
E|-----------------------------------|----------------|
B|-----------------------------------|----------------|
G|-----------------------------------|----------------|
D|-----------------------------------|----------------|
A|-----------------------------------|-7-5-0-3--5-0---|
D|-10-10-0-10-(10)-10-10-0-10-10-0---|-7-5-0-3--5-0---|
 |
 |  PM-----------------------------|
 |  S  S S  S  +S   S  S S  E  E E E   E E E Q  E Q
E|-----------------------------------|----------------|
B|-----------------------------------|----------------|
G|-----------------------------------|----------------|
D|-----------------------------------|----------------|
A|-----------------------------------|-7-5-0-3--5-0---|
D|-10--0-0-10-(10)-10--0-0-10-10-0-0-|-7-5-0-3--5-0---|


   G5F5D5F5      D5F5   G#5   G5 F5D5
   E E E Q   S S S E.   E E E Q  E Q     S  S S  S  +S   S  S S  E  E Q
E|-----------x-x------|---------------|-----------------------------------|
B|-----------x-x------|---------------|-----------------------------------|
G|-----------x-x------|---------------|-----------------------------------|
D|-----------x-x------|---------------|-----------------------------------|
A|-5-3-0-3---x-x-0-3--|-6-6-6-5--3-0--|-----------------------------------|
D|-5-3-0-3---x-x-0-3--|-6-6-6-5--3-0--|-10-10-0-10-(10)-10-10-0-10-10-0---|
 |
 |                                       PM-----------------------------|
 | E E E Q.      S E.   E E E Q  E Q     S  S S  S  +S   S  S S  E  E E E
E|--------------------|---------------|-----------------------------------|
B|--------------------|---------------|-----------------------------------|
G|--------------------|---------------|-----------------------------------|
D|--------------------|---------------|-----------------------------------|
A|-5-3-0-3-------0-3--|-6-6-6-5--3-0--|-----------------------------------|
D|-5-3-0-3-------0-3--|-6-6-6-5--3-0--|-10--0-0-10-(10)-10--0-0-10-10-0-0-|


                                       C5
                                      7/4
    S  S S  S  +S   S  S S  E  E Q      E  E E  E  E E  E  E E  E  Q   +E   E
E|-----------------------------------|----------------------------------------*|
B|-----------------------------------|----------------------------------------*|
G|-----------------------------------|----------------------------------------*|
D|-----------------------------------|-10-10---10-10---10-10---10-10--(10)\---*|
A|-----------------------------------|-10-10---10-10---10-10---10-10--(10)\---*|
D|-10-10-0-10-(10)-10-10-0-10-10-0---|-10-10---10-10---10-10---10-10--(10)\---*|
 |
 |  PM-----------------------------|
 |  S  S S  S  +S   S  S S  E  E E E    E  E E  E  E E  E  E E  E  Q   +E   E
E|-----------------------------------|----------------------------------------*|
B|-----------------------------------|----------------------------------------*|
G|-----------------------------------|----------------------------------------*|
D|-----------------------------------|-10-10---10-10---10-10---10-10--(10)\---*|
A|-----------------------------------|-10-10---10-10---10-10---10-10--(10)\---*|
D|-10--0-0-10-(10)-10--0-0-10-10-0-0-|-10-10---10-10---10-10---10-10--(10)\---*|


Duration Legend
---------------
W - whole; H - half; Q - quarter; E - 8th; S - 16th; T - 32nd; X - 64th; a - acciaccatura
+ - note tied to previous; . - note dotted; .. - note double dotted
Uncapitalized letters represent notes that are staccato (1/2 duration)
Irregular groupings are notated above the duration line
Duration letters will always appear directly above the note/fret number it represents the
duration for.  Duration letters with no fret number below them represent rests.  Multi-
bar rests are notated in the form Wxn, where n is the number of bars to rest for.  Low
melody durations appear below the staff

Tablature Legend
----------------
 h   - hammer-on
 p   - pull-off
 b   - bend
 pb  - pre-bend
 r   - bend release (if no number after the r, then release immediately)
 /\  - slide into or out of (from/to "nowhere")
 s   - legato slide
 S   - shift slide
  - natural harmonic
[n]  - artificial harmonic
n(n) - tapped harmonic
 ~   - vibrato
 tr  - trill
 T   - tap
 TP  - trem. picking
 PM  - palm muting
\n/  - tremolo bar dip; n = amount to dip
 \n  - tremolo bar down
 n/  - tremolo bar up
/n\  - tremolo bar inverted dip
 =   - hold bend; also acts as connecting device for hammers/pulls
 <>  - volume swell (louder/softer)
 x   - on rhythm slash represents muted slash
 o   - on rhythm slash represents single note slash

Misc Legend
-----------
 |  - bar
||  - double bar
||o - repeat start
o|| - repeat end
*|  - double bar (ending)
 :  - bar (freetime)
 $  - Segno
 &  - Coda
Tempo markers -  = BPM(8/16=s8/s16), where s8 = swing 8ths, s16 = swing 16ths
comments
print report bad tab
16 comments total. Showing first comments. show 1 bad comment
+3 reply
centralside 89 wrote on March 30 2006, 12:44 pm

This tab is really hard to understand, the parts aren't labeled very well.

-2 reply
ClassicalGuitar 310 wrote on March 2 2007, 11:02 am

Nothing personal, really, it's a good tab...but-
I've found a few bugs:
the riff goes more like this-

|-PM-|
A|-0-0-3h5-3p0-3-10--6-5-3--|
D|-0-0-3h5-3p0-3-10--6-5-3--|

and on the pre chorus, the bass does something like this-
(or maybe it's the guitar, I dunno...)

G|-9-9-4---4-4-0-
D|---------------
A|---------------
D|---------------

besides that, everything is cool.

oh and, NirvanaFan101, what does NIRVANA has do do with this?!

I want to post or [tab]
guest
You may want to rate the tab now too:
select rating
Please do not post tabs as comments. Select "correction" instead!