Oops, an error
Loading. Please wait.

Pretty Noose Bass Tab

version 1
version 1

Whole song

Interactive

7,694 views 6 this week
5 commentsread comments
1 2 3 4 5
accurate
x 7
add to favorites
launch autoscroll
font size
0
reset
guitar tuner
Autoscroll
slow
fast
+/-
esc
set tempo
stop
Help us to improve Ultimate-Guitar.com Take our survey!
×
Pretty Noose - Soundgarden

r=rest

  intro
  (x4)  verse measure (x3)
G|-----|----------------------------------------------------------|
D|-----|5--5-7-8--8-8-1--1-2-3--3-3-------------------------------|
A|3----|----------------------------3--3-5-6--6-7-8--8--8-6-8-6-6-|
E|-----|---------------------------------------------------8---8--|

  bridge (drop the end part of the last
          verse measure and begin this)  chorus riff
G|--------------------------------------|--------------------------------|
D|--5-7-8-7-5--5r--1--1r--3--3r--6--6r--|11111111555555559999999999999999|
A|8-------------------------------------|--------------------------------|
E|--------------------------------------|--------------------------------|

  chorus end
G|--------------------<12>-------|
D|5--5r--11111r------------------|
A|--------------3----------<15>--|
E|-------------------------------|

  solo
G|------------------------------------------------------------------------------------
D|5--5r--1--1r--3--3r--3--3r------------------------------5--5r--1--1r--3--3r--3--3r--
A|----------------------------3--3-5-6--6r--8--8r--8--8r------------------------------
E|------------------------------------------------------------------------------------

---------------------|
---------------------|
3--3-5-6--6r--8--8r--| followed by bridge
---------------------|

 "and I don't care what you got"
  (x3)
G|----3-2-----|
D|5-5-----3---|
A|------------|
E|------------|

A tab by Achilles (blue_sincere@hotmail.com)
comments
print report bad tab
5 comments total. Showing first comments.
0 reply
Kal Zakath 288 wrote on February 11 2007, 06:08 pm

The verse seems pretty perfect, but I think the very end part changes a few times. The bridge is correct as well I think, but in the chorus the 5 should be a 6.

0 reply
dsully85 10 wrote on January 25 2008, 04:26 pm

agreed, nice tab, but 5s are 6s in the chorus, end of the verse does change a few times, I'll tab it in here when I get
the chance...

0 reply
squishyH 12 wrote on January 17 2013, 09:03 am

Also there are some little hammered/pulled notes on the 11th fret in the chorus.

It goes something like:
(h = hammer on, p = pull off)


G|--------------------------------------------------------------------------|
D|1111111155555555-9-9h11p9-9h11p9-9h11p9-9h11p9-9h11p9-9h11p9-9h11p9-9h11p9|
A|--------------------------------------------------------------------------|
E|--------------------------------------------------------------------------|

I want to post or [tab]
guest
You may want to rate the tab now too:
select rating
Please do not post tabs as comments. Select "correction" instead!