Oops, an error
Loading. Please wait.

Pretty Noose Tab

version 1
version 1

Solo

Whole song

Interactive

3,181 views 1 this week
no commentswrite comment
1 2 3 4 5
please rate
add to favorites
launch autoscroll
font size
0
reset
how to read this tab
guitar tuner
Autoscroll
slow
fast
+/-
esc
set tempo
stop
Help us to improve Ultimate-Guitar.com Take our survey!
×
Author
Difficulty
intermediate
----------------------------------------------------------------------------
                             Pretty Noose - Soundgarden
----------------------------------------------------------------------------
Tabbed by: Ben Wilson
Email: canadaehh@gmail.com

Tuning: C G C G G E
(low to high)
                                                        1/2
e|--------------------------------------------------------------------------|
G|--19---15------20----20----20-----20-----20---------19^(19)(19)\-----17\--|
G|--19---15---20----20----20----20------20-20---------19 (19)(19)\-----17\--|
C|--------------------------------------------------------------------------|
G|--------------------------------------------------------------------------|
C|--------------------------------------------------------------------------|

e|--------------------------------------------------------------------------|
G|-15--------------------(15)\------------17\-------------------------------|
G|-15--------------------(15)\------------17\-------------------------------|
C|--------------------------------------------------------------------------|
G|--------------------------------------------------------------------------|
C|--------------------------------------------------------------------------|
                     1/2
e|--------------------------------------------------------------------------|
G|--------------------------------------------------------------------------|
G|---0-------3-----5^----------(5)-----5------------------------------------|
C|--------------------------------------------------------------------------|
G|--------------------------------------------------------------------------|
C|--------------------------------------------------------------------------|

e|--------------------------------------------------------------------------|
G|--------------------------------------------------------------------------|
G|3h5-0--------3---(3)------------------------------------------------------|
C|----------------------------------0---------------------5-----------------|
G|--------------------------------------------------------------------------|
C|--------------------------------------------------------------------------|
                                            1/2
e|--------------------------------------------------------------------------|
G|-----20----20-----20-20--17------15-----17^--------15-17-15-15-17-15------|
G|--20----20----20-----20--17---15----15--17---------15-17-15-15-17-15------|
C|--------------------------------------------------------------------------|
G|--------------------------------------------------------------------------|
C|--------------------------------------------------------------------------|
                                                                1/2
e|--------------------------------------------------------------------------|
G|-----12----12-----12-12\--------------------------------------------------|
G|--12----12----12-----12\---------------0-----3p0-------3----7^--(7)----7--|
C|--------------------------------------------------5-----------------------|
G|--------------------------------------------------------------------------|
C|--------------------------------------------------------------------------|

e|--------------------------------------------------------------------------|
G|---0--------------------------0-------10------10----10--------------------|
G|---0--------------------------0-------10------10-10-----------------------|
C|--------------------------------------------------------------------------|
G|--------------------------------------------------------------------------|
C|--------------------------------------------------------------------------|

e|--------------------------------------------------------------------------|
G|-14-------------(14)\--------10/14\12/15\14-------------------------------|
G|-14-------------(14)\--------10/14\12/15\14-------------------------------|
C|--------------------------------------------------------------------------|
G|--------------------------------------------------------------------------|
C|--------------------------------------------------------------------------|


| /  slide up
| \  slide down
| h  hammer-on
| p  pull-off
Suggest correction
What's this?
You can suggest a correction to this tab. Community and Mods will review your correction and vote to approve or reject it.
comments
We did not receive enough feedback on this tab! Please rate:
print report bad tab
1 2 3 4 5
guest
You may want to rate the tab now too:
select rating
Please do not post tabs as comments. Select "correction" instead!