Oops, an error
Loading. Please wait.

Pretty Noose Tab

version 3
version 3

Whole song

Interactive

34,058 views 51 this week
5 commentsread comments
1 2 3 4 5
excellent!
x 8
add to favorites
launch autoscroll
font size
0
reset
how to read this tab
guitar tuner
Autoscroll
slow
fast
+/-
esc
set tempo
stop
Help us to improve Ultimate-Guitar.com Take our survey!
×
Author
Hops44 332
Pretty Noose - Soundgarden
Tuning: CGCGGe

--Intro--

Gtr 1 (wah)
e--------------------------------------------------|
G--------------------------------------------------|
G-----0--3b4b3-----------------0--3b4b3-------5b7--|
C--0------------5-4---------0------------4-5-------|
G--------------------3-3/5-------------------------|
C--------------------------------------------------|

Gtr 1
e-----------------------------------------------------|
G-----------------------------------------------------|
G-----0--3b4b3-----------------0--3b4b3---------------|
C--0------------5-4---------0------------4-5-5b6------|
G--------------------3-3/5----------------------------|
C-----------------------------------------------------|

Gtr 1
e--------------------------------------------------|
G--------------------------------------------------|
G-----0--3b4b3-----------------0--3b4b3-------5b7--|
C--0------------5-4---------0------------4-5-------|
G--------------------3-3/5-------------------------|
C--------------------------------------------------|
Gtr 2 joins in with:
e------------------------------------------------------|
G------------------------------------------------------|
G-----0-0-12-(12)--0-0-12-10-8-10-(10)-----------------|
C------------------------------------------------------|
G------------------------------------------------------|
C------------------------------------------------------|

Gtr 1
e--------------------------------------------------|
G---------------------------------------------5----|
G-----0--3b4b3-----------------0--3b4b3-------5b7--|
C--0------------5-4---------0------------4-5-------|
G--------------------3-3/5-------------------------|
C--------------------------------------------------|
Gtr 2
e------------------------------------------------------|
G------------------------------------------------------|
G-----0-0-12-(12)--0-0-12-10-8-10-(10)-----------------|
C------------------------------------------------------|
G------------------------------------------------------|
C------------------------------------------------------|


--Verse--

Gtr 1+2 (Heavy Distortion) (Play twice)                          (hold bend)
e--7--7-7--9--10--10-10--3--3-3--4--5--5--0--0-0--2--3--3-3--4--5----------|
G--7--7-7--9--10--10-10--3--3-3--4--5--5--0--0-0--2--3--3-3--4--5--7---7p0-|
G--7--7-7--9--10--10-10--3--3-3--4--5--5--0--0-0--2--3--3-3--4--5--6b7-7p0-|
C--7--7-7--9--10--10-10--3--3-3--4--5--5--0--0-0--2--3--3-3--4--5----------|
G--7--7-7--9--10--10-10--3--3-3--4--5--5--0--0-0--2--3--3-3--4--5----------|
C--7--7-7--9--10--10-10--3--3-3--4--5--5--0--0-0--2--3--3-3--4--5(x4)------|

Gtr 1+2
e--7--7-7--9--10--10-10--3--3-3--4--5--5--0--0-0--2--3--3-3--4--5----5-----|
G--7--7-7--9--10--10-10--3--3-3--4--5--5--0--0-0--2--3--3-3--4--5----5-----|
G--7--7-7--9--10--10-10--3--3-3--4--5--5--0--0-0--2--3--3-3--4--5----5-----|
C--7--7-7--9--10--10-10--3--3-3--4--5--5--0--0-0--2--3--3-3--4--5----5-----|
G--7--7-7--9--10--10-10--3--3-3--4--5--5--0--0-0--2--3--3-3--4--5----5-----|
C--7--7-7--9--10--10-10--3--3-3--4--5--5--0--0-0--2--3--3-3--4--5----5-----|


--Bridge--

Gtr 1+2
e-5-6-7-10-9-7--7-7--x-x-3--3-3--x-x-5--5-5--x-x-8--8-8-x-x--|
G-5-6-7-10-9-7--7-7--x-x-3--3-3--x-x-5--5-5--x-x-8--8-8-x-x--|
G-5-6-7-10-9-7--7-7--x-x-3--3-3--x-x-5--5-5--x-x-8--8-8-x-x--|
C-5-6-7-10-9-7--7-7--x-x-3--3-3--x-x-5--5-5--x-x-8--8-8-x-x--|
G-5-6-7-10-9-7--7-7--x-x-3--3-3--x-x-5--5-5--x-x-8--8-8-x-x--|
C-5-6-7-10-9-7--7-7--x-x-3--3-3--x-x-5--5-5--x-x-8--8-8-x-x--|


--Chorus--

Gtr 1+2 (Play 3 times)
e--3-3-3-3-3-3-3-3-8-8-8-8-8-8-8-8-11--------| /Strum the 11's and
G--3-3-3-3-3-3-3-3-8-8-8-8-8-8-8-8-11-13-----|/ bend 3rd string slowly
G--3-3-3-3-3-3-3-3-8-8-8-8-8-8-8-8-11-12b14--|\ up and then slowly down.
C--3-3-3-3-3-3-3-3-8-8-8-8-8-8-8-8-11--------| \
G--3-3-3-3-3-3-3-3-8-8-8-8-8-8-8-8-11--------|
C--3-3-3-3-3-3-3-3-8-8-8-8-8-8-8-8-11--------|


--Pre-Verse--

Gtr 1+2
e--7--7-7--x-x-3--3-3--x-x-0-(0)--|
G--7--7-7--x-x-3--3-3--x-x-0-(0)--|
G--7--7-7--x-x-3--3-3--x-x-0-(0)--|
C--7--7-7--x-x-3--3-3--x-x-0-(0)--|
G--7--7-7--x-x-3--3-3--x-x-0-(0)--|
C--7--7-7--x-x-3--3-3--x-x-0-(0)--|

Gtr 1 (wah)
e--------------------------------------------------|
G---------------------------------------------5----|
G-----0--3b4b3-----------------0--3b4b3-------5b7--|
C---------------5-4---------0------------4-5-------|
G--------------------3-3/5-------------------------|
C--------------------------------------------------|


--Verse 2--

Gtr 2 plays the verse while Gtr 1 plays this softly (Play twice with wah):
e--------------------------------------------------|
G--------------------------------------------------|
G-----0--3b4b3-----------------0--3b4b3-------5b6--|
C---0-----------5-4---------0------------4-5-------|
G--------------------3-3/5-------------------------|
C--------------------------------------------------|

e--------------------------------------------------|
G--------------------------------------------------|
G-----0--3b4b3-----------------0--3b4-(4)-(4)------|
C---0-----------5-4---------0----------------------|
G--------------------3-3/5-------------------------|
C--------------------------------------------------|



--Bridge 2--

Same as first Bridge


--Chorus 2--

(Same as first chorus except play this one 4 times)


--Solo-- (w/wah)

e-----------------------------------------------------|
G-----------------------------------------------------|
G--/17--15--20t---------18h20-18-17-15t----16///\\\---|
C-----------------------------------------------------|
G-----------------------------------------------------|
C-----------------------------------------------------|

e------------------------------------|
G------------------------------------|
G--0-3-5b7--(7)--5--5p3p0-3-(3)--0---|
C------------------------------------|
G------------------------------------|
C------------------------------------|

e-------------------------------------------------|
G-------------------------------------------------|
G--20t--17t-15--17b19b17---12-(12)---3h5p3p0-5h7--|
C-------------------------------------------------|
G-------------------------------------------------|
C-------------------------------------------------|

e---------------------------------------------------|
G---------------------------------------------------|
G--0t----10t----14-(14)---12-14-12-14s17-15--12/0---|
C---------------------------------------------------|
G---------------------------------------------------|
C---------------------------------------------------|


--Solo Riff--

Gtr 2
e--7--7-7--x-x-3--3-3--x-x-5--5-5--x-x-5--5-5--x-x--|
G--7--7-7--x-x-3--3-3--x-x-5--5-5--x-x-5--5-5--x-x--|
G--7--7-7--x-x-3--3-3--x-x-5--5-5--x-x-5--5-5--x-x--|
C--7--7-7--x-x-3--3-3--x-x-5--5-5--x-x-5--5-5--x-x--|
G--7--7-7--x-x-3--3-3--x-x-5--5-5--x-x-5--5-5--x-x--|
C--7--7-7--x-x-3--3-3--x-x-5--5-5--x-x-5--5-5--x-x--|

e--0--0-0--2--3--3-3--x-x-5--5-5--x-x-5--5-5--x-x--|
G--0--0-0--2--3--3-3--x-x-5--5-5--x-x-5--5-5--x-x--|
G--0--0-0--2--3--3-3--x-x-5--5-5--x-x-5--5-5--x-x--|
C--0--0-0--2--3--3-3--x-x-5--5-5--x-x-5--5-5--x-x--|
G--0--0-0--2--3--3-3--x-x-5--5-5--x-x-5--5-5--x-x--|
C--0--0-0--2--3--3-3--x-x-5--5-5--x-x-5--5-5--x-x--|

e--7--7-7--x-x-3--3-3--x-x-5--5-5--x-x-5--5-5--x-x--|
G--7--7-7--x-x-3--3-3--x-x-5--5-5--x-x-5--5-5--x-x--|
G--7--7-7--x-x-3--3-3--x-x-5--5-5--x-x-5--5-5--x-x--|
C--7--7-7--x-x-3--3-3--x-x-5--5-5--x-x-5--5-5--x-x--|
G--7--7-7--x-x-3--3-3--x-x-5--5-5--x-x-5--5-5--x-x--|
C--7--7-7--x-x-3--3-3--x-x-5--5-5--x-x-5--5-5--x-x--|

e--0--0-0--2--3--3-3--x-x-5--5-5--x-x---|
G--0--0-0--2--3--3-3--x-x-5--5-5--x-x---|
G--0--0-0--2--3--3-3--x-x-5--5-5--x-x---|
C--0--0-0--2--3--3-3--x-x-5--5-5--x-x---|
G--0--0-0--2--3--3-3--x-x-5--5-5--x-x---|
C--0--0-0--2--3--3-3--x-x-5--5-5--x-x---|


--Bridge 3--

Play the regular Bridge, then play:

Gtr 1+2 (Play twice)
e--5-5-7-7-10-9--5--|
G--5-5-7-7-10-9--5--|
G--5-5-7-7-10-9--5--|
C--5-5-7-7-10-9--5--|
G--5-5-7-7-10-9--5--|
C--5-5-7-7-10-9--5--|

Gtr 1+2
e--5-7-7-7-10-9--5----5-5-7-7-10-10-9--7--|
G--5-7-7-7-10-9--5----5-5-7-7-10-10-9--7--|
G--5-7-7-7-10-9--5----5-5-7-7-10-10-9--7--|
C--5-7-7-7-10-9--5----5-5-7-7-10-10-9--7--|
G--5-7-7-7-10-9--5----5-5-7-7-10-10-9--7--|
C--5-7-7-7-10-9--5----5-5-7-7-10-10-9--7--|


--Chorus 3--

Play Chorus 4 times


--Outro--

Gtr 1+2 (Clean) (Play twice)
e--3---------------8---------------11--------| /Quietly strum
G--3---------------8---------------11-13-----|/ the bend, slowly
G--3---------------8---------------11-12b14--|\ get louder the
C--3---------------8---------------11--------| \second time.
G--3---------------8---------------11--------|
C--3---------------8---------------11--------|

Gtr 1+2 (Distortion)
e-5-6-7-10-9-7--|
G-5-6-7-10-9-7--|
G-5-6-7-10-9-7--|
C-5-6-7-10-9-7--|
G-5-6-7-10-9-7--|
C-5-6-7-10-9-7--|


End


Any problems or suggestions leave a comment.
Email: taylormeers@telus.net
Suggest correction new What's this?
You can suggest a correction to this tab. Community and Mods will review your correction and vote to approve or reject it.
comments
print report bad tab
5 comments total. Showing first comments. show 1 bad comment
+1 reply
Neil_Rawson 47 wrote on February 27 2008, 05:46 pm

Nice work. Sounds perfect to me, but it's also easy to read.

+3 reply
Hops44 332 wrote on July 28 2008, 03:13 am

Didnt copy it from the mag, I did it by ear.

guest
You may want to rate the tab now too:
select rating
Please do not post tabs as comments. Select "correction" instead!