Oops, an error
Loading. Please wait.

Rowing Bass Tab

5,007 views 33 this week
3 commentsread comments
1 2 3 4 5
excellent!
x 7
add to favorites
launch autoscroll
font size
0
reset
guitar tuner
Tab Pro tools
  • play this tab
  • loop segment
  • change instrument
  • show fretboard
  • metronome
Autoscroll
slow
fast
+/-
esc
set tempo
stop
Contributor
Difficulty
Tuning
intermediate
D A D G B E
G----------17-----------14-----------14------14-----|
D---0-17-19------0-15-17-----0-15-17--15-0-x-12-----|
A---------------------------------------------------|
D---------------------------------------------------|

G---------------------------------------------------|
D----------15---------------------------------------|
A---0-15-17-----0-15-17-15--------------------------|
D-----------------------15---0-15-17-0--0-15-17-0---|
comments
print report bad tab
3 comments total.
+1 reply
pathius wrote on June 13 2013, 02:18 am

G---------17-----------14----------14----------|
D--0h17h19------0h15h17-----0h15h17--15-12-12--|
A----------------------------------------------|
D----------------------------------------------|

G---------10-----------12-------2------2-------|
D--0h10h12------0h10h12-----3p0-0--5p0-0-------|
A----------------------------------------------|
D----------------------------------------------|

0 reply
JM1729 wrote on May 4 2014, 08:42 am, edited at 08:44 am

G---------17-----------14----------14----------|D--0h17h19------0h15h17-----0h15h17--15--0-0---|A----------------------------------------------|E----------------------------------------------|G---------10-----------------------------------|D--0h10h12------0h10h12-----3p0-0--5p0-0-------|A----------------------8-----------------------|E----------------------------------------------|

+1 reply
JM1729 wrote on May 4 2014, 08:45 am

G---------17-----------14----------14----------|
D--0h17h19------0h15h17-----0h15h17--15--0-0---|
A----------------------------------------------|
E----------------------------------------------|

G---------10--------------------2------2-------|
D--0h10h12------0h10h12-----3p0-0--5p0-0-------|
A----------------------8-----------------------|
E----------------------------------------------|
Something went wrong with my previous correction, so I'm posting it again

I want to post or [tab]
guest
You may want to rate the tab now too:
select rating
Please do not post tabs as comments. Select "correction" instead!