Oops, an error
Loading. Please wait.

Rusty Cage Tab

version 2
version 2

Whole song

Interactive

31,884 views 132 this week
no commentswrite comment
1 2 3 4 5
x 8
add to favorites
launch autoscroll
font size
0
reset
how to read this tab
guitar tuner
Autoscroll
slow
fast
+/-
esc
set tempo
stop
Help us to improve Ultimate-Guitar.com Take our survey!
×
Author
 Rusty Cage 
 Soundgarden
 Tabbed by:Brownbear93

 Tuning:B A D G B e 
 To get that "Rusty Cage" sound, have a wah pedal set heel down


[Intro]

 Both Guitars

 e|--------------------------|---------------------------------------|
 B|--------------------------|---------------------------------------|x5
 G|---14/16-16h18-14h16-14~--|-----------14h16---------14h16~--------|
 D|--------------------------|---------------------------------------|
 A|--------------------------|----12h14---------12h14----------------|
 B|--------------------------|---------------------------------------|


[Verse]

 e|------------------------------------------------------|
 B|------------------------------------------------------|x22
 G|------------------------------------------------------|
 D|------------------------------------------------------|
 A|--------------12h14-------------12h14--------12h14----|
 B|--10/12-12h14-------10----10/12-------10/12-----------|

 e|-----------------------------------------------------------------|
 B|-----------------------------------------------------------------|
 G|-----------------------------------------------------------------|
 D|-----------------------------------------------------------------|
 A|--------12-12----------------------------------------------------|
 B|--10/12-12-12-12\3--3/10-10-----------6--5-5-3-3-0---3p0-3b`-----|


[Verse] x18


[Bridge]

 e|----------------------------------------|-------------------------------|
 B|----------------------------------------|-------------------------------|
 G|----------------------------------------|-------------------------------|
 D|----------------------------------------|-------------------------------|
 A|----------------------------------------|-------------------------------|
 B|--0-0-0-0-0-0-0-0-0-0-0-0-3-5-6-7-3p0---|-0-0-0-0-0-0-0-0-3-5-6-7-3p0---|


                               x2
 e|-------------------------------|---------------------------------|
 B|-------------------------------|---------------------------------|x3
 G|-------------------------------|--4------------2-----------------|
 D|-------------------------------|--4------------2-----------------|
 A|-------------------------------|--2------------0-----------------|
 B|--0-0-0-0-0-0-0-0-3-5-6-7-3p0--|--0----3-5-6-7------5p3-5-3b`----|


 G2: Fill after A5
 e|------------------|
 B|------------------|
 G|------------------|
 D|------------------|
 A|--7p5-7-7p5~-\----|
 B|------------------|


 e|-----------------------------------------------------------------------------------------|
 B|-----------------------------------------------------------------------------------------|
 G|-----------------------------------------------------------------------------------------|
 D|-----------------------------------------------------------------------------------------|
 A|--------12-12----------------------------------------------------------------------------|
 B|--10/12-12-12-12\3--3/10-10--------6--5-5-3-3-0---3p0-3b`-----0-----3b`---0-----5b`---0--|


 e|--------------------------------------------------------------|
 B|--------------------------------------------------------------|x9
 G|--------------------------------------------------------------|
 D|--------------------------------------------------------------|
 A|--------------------------------------------------------------|
 B|--0---3b`-0--3--/10~--3b`-0----0-3-0-/10-0---3b`--0---5b`-----|


 [End]

 G1:
 e|-----------------------------------|
 B|-----------------------------------|
 G|-----------------------------------|
 D|-----------------------------------|
 A|--------12-12----------------------|
 B|--10/12-12-12-12\3--3/10-10~-------|

 G2:
 e|-----------------------------------|
 B|-----------------------------------|
 G|--------------------12/14~---------|
 D|-----------------------------------|
 A|-----------------------------------|
 B|-----------------------------------|




************************************

| h  Hammer-on
| p  Pull-off
| /  Slide up
| \  Slide down
| ~  Vibrato
| b` Slight bend (about a quarter step)

************************************
Suggest correction
comments
print report bad tab
guest
You may want to rate the tab now too:
select rating
Wanna post a correction for this tab? Suggest correction