Oops, an error
Loading. Please wait.

Rusty Cage tab

version 3
version 3

Whole song

Interactive

85 views 9 this week
1 commentread comment
1 2 3 4 5
1 last vote to show rating
add to favorites
×
Save as Personal and add changes to this tab that will be seen only by you. Learn more ›
×
You can save this tab as Personal to edit and correct it or add notes. All changes will be seen only by you. Learn more »
launch autoscroll
font size
0
reset
how to read this tab
guitar tuner
backing track
0:00
0:00
edit
Autoscroll
slow
fast
+/-
esc
set tempo
stop
[Intro]
  Guitar 1                        Guitar 2
e|----------------------|       e|-----------------------|
B|----------------------|       B|-----------------------|
G|------------14h16-14~-|       G|------14h16-----14h16~-|
D|----------------------|       D|-----------------------|
A|-12/14-14h16----------|       A|-12h14-----12h14-------|
E|----------------------|       E|-----------------------|

[Main Riff]
e|--------------------|---------------------|
B|--------------------|---------------------|
G|--------------------|---------------------|
D|--------------------|---------------------| Repeat 23 x then end riff as below
A|------------12h14-0-|------12h14-----12h14|
E|-10/12-12h14--------|-10/12-----10/12-----|

[Main riff ending]
e|------------------------------------|----------------------|
B|------------------------------------|----------------------|
G|------------------------------------|----------------------|
D|------------------------------------|----------------------|
A|-12h14------------------------------|----------------------|
E|------10/12-15p12-15-12p10-7-10~~p6-|-6-5-5-3-3-0-0--3-0-3-|
 
[Bridge]
e|--------------------------------------|---------------------------------------------|
B|--------------------------------------|---------------------------------------------|
G|--------------------------------------|---------------------------------------------|
D|--------------------------------------|-4-------2~----------------------------------|
A|--------------------------------------|-2-------0~------repeat----------------------|
E|-0-0-0-0-0-0-0-0-3-5-6-7-3-0-repeat 3x|--3-5-6-7---3b-3b------15p12-15-12p10-7-10-6-|

[Breakdown]
e|---------------------------------------------------|-----------------------|
B|---------------------------------------------------|-----------------------|
G|---------------------------------------------------|-----------------------|
D|---------------------------------------------------|-----------------------|
A|---------------------------------------------------|-----------------------|
E|-0-3b-0-5b-0-0-3b-0-3/10b-3b-0-0-3b-0-10b-repeat 8x|-15p12-15-12p10-7-10~~-|


*************************

| b    Bend
| /    Slide up
| \    Slide down
| h    Hammer-on
| p    Pull-off
| br   Bend release
| ~    Vibrato

*************************

            
            
Suggest correction
Creating personal tab
Creating personal tab
You can edit any tab online and save it as your Personal.

You can edit, replace or remove any tab part or add personal notes – all changes will be seen only by you.

Personal tabs can be accessed anytime from any device, even offline.
Learn more »
Give kudos to tab author, rate the tab!
1 2 3 4 5
comments
print report bad tab
1 comment total.
0 reply
Armotron 15 Aug 23, 2017 09:15 AM

Good tab especially on the 23 times on the main riff but how many times on the Main Riff Ending, Bridge, and Breakdown?

guest
You may want to rate the tab now too:
select rating
Wanna post a correction for this tab? Suggest correction