Oops, an error
Loading. Please wait.

Slaves And Bulldozers Bass Tab

version 1
version 1

Whole song

Interactive

4,234 views 9 this week
2 commentsread comments
1 2 3 4 5
x 3
add to favorites
launch autoscroll
font size
0
reset
guitar tuner
Autoscroll
slow
fast
+/-
esc
set tempo
stop
Help us to improve Ultimate-Guitar.com Take our survey!
×
Slaves & Bulldozers
By: SOUNDGARDEN
From: Badmotorfinger

This song may be tuned down though you can still play it in normal EADG
tuning.

Intro:

G------------------------------
D-----------3----53----3-----
A-----5-5-----5-----5-------- 
E-------------------------------

Repeat until you hear the riff change

Verse:
G-------------------------------
D------------53----3----------
A-------55------5----5--3----
E--------------------------------

Pre-Chorus:
D--------5--7-7----5--7--7-6-5
          Now I know why you've been shaking...

Chorus:
G------------3-5--5--------------------------
D---------3-------------7-6-5-0-3-5--5----
A------5---------------------------------------
E-----------------------------------------------
          Bleed your heart out...
Suggest correction
Give kudos to tab author, rate the tab!
1 2 3 4 5
comments
print report bad tab
2 comments total.
0 reply
bassplayer496 347 Dec 31, 2006 02:46 PM

Sounds good to me. ;)
~Love, Dallas~

0 reply
ClassicalGuitar 30 Feb 25, 2007 01:56 PM

nothing personal, but...it's wrong.
I suggest that you downtune(I don't know where exactly)
the fat string, and play like this, sounds a lot better:

|0-0-2---0-5-3-0-2---|

some other riff:

|10-12--12--12--10-12--12-11-10--|

had fun?

guest
You may want to rate the tab now too:
select rating
Wanna post a correction for this tab? Suggest correction