Oops, an error
Loading. Please wait.

Slaves And Bulldozers Tab

version 2
version 2

Whole song

Interactive

11,601 views 3 this week
no commentswrite comment
1 2 3 4 5
accurate
x 5
add to favorites
launch autoscroll
font size
0
reset
how to read this tab
guitar tuner
Tab Pro tools
  • play this tab
  • loop segment
  • change instrument
  • show fretboard
  • metronome
×
Best way to learn
"Slaves And Bulldozers"
Autoscroll
slow
fast
+/-
esc
set tempo
stop
Contributor
SOUNDGARDEN

SLAVES AND BULLDOZERS

tabbed by dan

DROP-D TUNING

|--------------------------|---------------------------|
|--------------------------|---------------------------|
|--------------------------|---------------------------|
|--------------------------|---------------------------|
|---------9-8----5-4-5-----|--------9-8----5-4-5--1b2--|
|---0--0----------------3--|---0--0--------------------|
intro1 g1  x4                   intro2 x2  then intro1 x2

|------------------------------------------------------13b15--|
|-----13b15------------------------13b15----------------------|
|------------11-10h11p10\7-7--------------11-10h11p10---------|
|--10---------------------------10----------------------------|
|-------------------------------------------------------------|
|-------------------------------------------------------------|
intro g2  x2

|------------------------------19-20-19-20-19---|
|--13--------------------13----18-19-18-19-18---|
|---------11--10--------------------------------|
|--10--------------------10---------------------|
|----------------12-----------------------------|
|-----------------------------------------------|
intro continued

|--------------------13b15-------------------------|
|------13b15----------------------10---------------|
|------------11--10-------------------11--10-------|
|--10-----------------------------------------12---|
|-----------------------------12--------------12---|
|--------------------------------------------------|
intro continued

|------------------------------|-----------------------------|
|------------------------------|-----------------------------|
|--------17--------------------|---------17------------------|
|------------16--15---------3--|------------16------------3--|
|--------------------5-4-5-----|---------------15--5-4-5-----|
|--0--0------------------------|---0--0----------------------|
verse fills

|--------------------------------------------------------------|
|--------------------------------------------------------------|
|--------------------------------------------------------------|
|--------------------------------------------------------------|
|-----10-12---12----10-12---12-11-10----10-12---12----10-12-\--|
|-----10-12---12----10-12---12-11-10----10-12---12----10-12-\--|
end verse  (now i know....)

|--------|------------------------------------|
|--------|------------------------------------|
|--------|------------------------------------|
|--------|------------------------------------|
|--0--3--|--8-10-10----------------3--5---5---|
|--0--3--|--8-10-10---0-7--6-5-0---3--5---5---|
chorus

|----------------|-------------------------------------------------|
|----------------|-------------------------------------------------|
|----------------|-------------------------------------------------|
|----------------|-------------------------------------------------|
|----------------|-5--7--7---5--7--7---5--7---7---5--7-------------|
|---0--7--6-5-0--|-5--7--7---5--7--7---5--7---7---5--7--7--6-5-0---|
                   chorus part 2

|--------------------------------------------------------|
|----------8----------8----------8-----------------------|
|---------10b12------10b12------10b12--------------------|
|--------------------------------------------------------|
|----5--7-------5--7-------5--7-------5--7---------------|
|----5--7-------5--7-------5--7-------5--7----7--6-5-0---|
chorus part 2 is subbed for this 2nd time

|-------------------------------------------------|
|-------------------------------------------------|
|-------------------------------------------------|
|-------------------3b5r3-------------------------|
|---3--5---5--5-----------------------------------|
|---3--5---5--5------------------12-11-10--7-6-5--|
end chorus  (what's in it for me....)

|----------------------------------|
|----------------------------------|
|----------------------------------|
|----------------------------------|
|-----------7b8--------------7b8---|
|----0---0------0---5--3--0--------|
end chorus continued

|--------------------------------------------13b17--|
|-------13b15-------------------13b15---------------|
|--------------11-10\7-7---------------11-10--------|
|---10-----------------------10---------------------|
|---------------------------------------------------|
|---------------------------------------------------|
g2  post chorus1  (g1 plays intro)

|---------------------------------|-----------------------------------------|
|------13b15----------------------|--------13--------11--13--11--10---------|
|---10--------11--10h11p10\7-7----|-----------------------------------------|
|---------------------------------|--------10---------9--10---9---7---------|
|---------------------------------|---------9---8-----5---4---5---5--4--5---|
|---------------------------------|---0--0----------------------------------|
g2 post chorus1 continued          last bar  (two guitars arr. for 1)

|-(14)-------------------------------------------|   with wah  through entire solo
|-----*---%-----0-----^--------------------------|
|-----2---5-------*---5-^--^-----%---------------|
|-----------------4-----5--7--7-----7/12--12-----|
|------------------------------------------------|
|------------------------------------------------|
solo        *=trem pick      %=whammy bar down       ^=harmonic

|----------------------------------------------|
|-----------10-------------------------12------|
|--11-10-11----12-11-------13-12----------13---|
|--------------------10-10-------10-10---------|
|----------------------------------------------|
|----------------------------------------------|
solo continued  for the entire bar, randomly pull and push whammy bar

|-------------------------|
|----7----10----7----10---|
|----7----10----7----10---|  x2
|-------------------------|
|-------------------------|
|-------------------------|
solo continued      trem pick all notes

|-----------------------------------------------------|
|-----------------------------------------------------|
|-----------------------------------------------------|
|-----------------------------------------------------|
|-----------9-8----4h5p4h5p4h5p4h5p4---9-8------1b2---|
|----0---0--------------------------------------------|
underneath solo play this twice  (start from trem pick part above)

|--------------------------------------|
|--12--13--12--13--12--13--12--13--12--|
|--12--13--12--13--12--13--12--13--12--|
|--------------------------------------|
|--------------------------------------|
|--------------------------------------|
solo continued

|---20--19-20---20-------------|-----12b13-----|
|---19--18-19---19-----2-------|-----11b12-----|
|--------------------0---------|---------------|
|------------------------------|---------------|
|------------------------------|---------------|
|------------------------------|---------------|
solo continued                 after solo play this a few times

|------------------------|-------------------------------|
|------------------------|-------------------------------|
|------------------------|------11-11-------11-----------|
|-----------12--15--12---|------10-10-12----10h12p10h12--|
|----12h14---------------|-------------------------------|
|------------------------|-------------------------------|
fills in verse 3

|----------------------------------|---------|------------------------|
|----------------------------------|---------|------------------------|
|----------------------------------|---------|----10--------10-12-----|
|----15---15---12--12h15p12----12--|----\7---|--------10h12-----------|
|---------------------------15-----|---------|--------------------10--|
|----------------------------------|---------|------------------------|
fills

the rest is repeats, guitar overdub solos over last verse but i'm not going to tab it 
make noise.

|---------------------------------|
|---------------------------------|
|-----5------4------5------4------|
|-----5------5------5------5------|
|-----3------3------3------3------|
|---------------------------------|
end  on this.
comments
print report bad tab
I want to post or [tab]
guest
You may want to rate the tab now too:
select rating
Please do not post tabs as comments. Select "correction" instead!