Oops, an error
Loading. Please wait.

Slaves And Bulldozers Bass Tab

version 3
version 3

Whole song

Interactive

771 views 1 this week
no commentswrite comment
1 2 3 4 5
3 more votes to show rating
add to favorites
launch autoscroll
font size
0
reset
guitar tuner
Autoscroll
slow
fast
+/-
esc
set tempo
stop
Help us to improve Ultimate-Guitar.com Take our survey!
×
Author
Difficulty
novice
The first version of this tab is good for those of you with 4-string basses, but this is 
you 5+ string basses

Intro:
G----------------------------------|
D----------------------------------|
A----------------------------------|
E-----------1----31-----1----------|
B-----3-3-----3-----3--------------|

Verse/solo:
G---------------------------------|
D---------------------------------|
A---------------------------------|
E------------31-------------1-----|
B-------33------3-2--3------------|

Post/Pre-Chorus:
G---------------------------------|
D--------5--7-7----5--7--7-6-5----|
A---------------------------------|
E---------------------------------|
B---------------------------------|

Chorus:
G------------3-5--5------------------------------|
D----------------------7-6-5-0-3-5--5------------|
A------------------------------------------------|
E------------------------------------------------|
B------------------------------------------------|
Suggest correction
Give kudos to tab author, rate the tab!
1 2 3 4 5
comments
print report bad tab
guest
You may want to rate the tab now too:
select rating
Wanna post a correction for this tab? Suggest correction