Oops, an error
Loading. Please wait.

Slaves Bulldozers Tab

1,115 views 1 this week
no commentswrite comment
1 2 3 4 5
3 more votes to show rating
add to favorites
launch autoscroll
font size
0
reset
how to read this tab
guitar tuner
Autoscroll
slow
fast
+/-
esc
set tempo
stop
Help us to improve Ultimate-Guitar.com Take our survey!
×
Author
-------------------------------------------------------------------------
                             Slaves & Bulldozers - Soundgarden
-------------------------------------------------------------------------
Tabbed by: Marko Klancisar
Email: marko.klancisar@gmail.com

Tuning: Drop D

Intro: Blow on guitar strings


e|---------------------------------------------------------------15bend-|
B|--------15bend------------------------------15bend--------------------|
G|------0-----------------------------------0---------------------------| 2x
D|--------------16-15-16-15---12--------------------16-15-16-15---------|
A|----------------------------------------------------------------------|
D|-0-0---------------------------------0-0------------------------------|



e|--------------------------------------------------17-19-17-19---------|
B|----------------------------------------------------------------------|
G|------0-15bend----------------------------0-17bend--------------------|
D|--------------16-15---12----------------------------------------------|
A|----------------------------------------------------------------------|
D|-0-0---------------------------------0-0------------------------------|



e|----------------------------15----------------------------------------|
B|----------------------------------------------------------------------|
G|------0-17------------------------------------------------------------|
D|--------------16-15-16-15-----------------15-14---16-15-16-15---12----|
A|----------------------------------------------------------------------|
D|-0-0---------------------------------0-0------------------------------|



e|----------------------------------------------------------------------|
B|----------------------------------------------------------------------|
G|----------------------------------------------------------------------|11x
D|----------------------------------------------------------------------|
A|----------------------------------------------------------------------|
D|-0-0—17-15---12-10-12---15--------------------------------------------|



e|----------------------------------------------------------------------|
B|----------------------------------------------------------------------|
G|----------------------------------------------------------------------| 2x
D|-10-12-12-12-12---10-12-12---12-11-10---------------------------------|
A|-10-12-12-12-12---10-12-12---12-11-10---------------------------------|
D|-10-12-12-12-12---10-12-12---12-11-10-0-------------------------------|



e|----------------------------------------------------------------------|
B|----------------------------------------------------------------------|
G|----------------------------------------------------------------------| 2x
D|-8-10--10-----7-6-5---3-5--5-----7-3----------------------------------|
A|-8-10--10-----7-6-5---3-5--5-----7-3----------------------------------|
D|-8-10--10-----7-6-5-0-3-5--5-----7-3----------------------------------|



e|----------------------------------------------------------------------|
B|----------------------------------------------------------------------|
G|----------------------------------------------------------------------|
D|-8-10--10-----7-6-5---3-5--5------------------------------------------|
A|-8-10--10-----7-6-5---3-5--5------------------------------------------|
D|-8-10--10-----7-6-5-0-3-5--5------------------------------------------|



e|----------------------------------------------------------------------|
B|----------------------------------------------------------------------|
G|----------------------------------------------------------------------| 2x
D|-7-6-5---5-7-7-7-7---5-7-7--------------------------------------------|
A|-7-6-5---5-7-7-7-7---5-7-7--------------------------------------------|
D|-7-6-5-0-5-7-7-7-7-0-5-7-7--------------------------------------------|



e|----------------------------------------------------------------------|
B|----------------------------------------------------------------------|
G|----------------------------------------------------------------------|
D|-7-6-5---3-5-5--------------------------------------------------------|
A|-7-6-5---3-5-5--------------------------------------------------------|
D|-7-6-5-0-3-5-5----------------12-11-10-0-7-6-5-0----------------------|



e|----------------------------------------------------------------------|
B|----------------------------------------------------------------------|
G|----------------------------------------------------------------------| 4x
D|-x-x-3-----------3----------------------------------------------------|
A|-x-x-3---0-5-3-0-3----------------------------------------------------|
D|-x-x-----0-5-3-0------------------------------------------------------|



e|---------------------------------------------------------------15bend-|
B|--------15bend------------------------------15bend--------------------|
G|------0-----------------------------------0---------------------------|
D|--------------16-15-16-15---12--------------------16-15-16-15---------|
A|----------------------------------------------------------------------|
D|-0-0---------------------------------0-0------------------------------|



e|----------------------------------------------------------------------|
B|--------15bend--------------------------------------------------------|
G|------0---------------------------------------------------------------|
D|--------------16-15-16-15---12-------------17-17-----14-15-14---12----|
A|----------------------------------------------------------------------|
D|-0-0---------------------------------0-0------------------------------|



e|----------------------------------------------------------------------|
B|----------------------------------------------------------------------|
G|----------------------------------------------------------------------|11x
D|----------------------------------------------------------------------|
A|----------------------------------------------------------------------|
D|-0-0—17-15---12-10-12---15--------------------------------------------|



e|----------------------------------------------------------------------|
B|----------------------------------------------------------------------|
G|----------------------------------------------------------------------| 2x
D|-10-12-12-12-12---10-12-12---12-11-10---------------------------------|
A|-10-12-12-12-12---10-12-12---12-11-10---------------------------------|
D|-10-12-12-12-12---10-12-12---12-11-10-0-------------------------------|



e|----------------------------------------------------------------------|
B|----------------------------------------------------------------------|
G|----------------------------------------------------------------------| 2x
D|-8-10--10-----7-6-5---3-5--5-----7-3----------------------------------|
A|-8-10--10-----7-6-5---3-5--5-----7-3----------------------------------|
D|-8-10--10-----7-6-5-0-3-5--5-----7-3----------------------------------|



e|----------------------------------------------------------------------|
B|----------------------------------------------------------------------|
G|----------------------------------------------------------------------|
D|-8-10--10-----7-6-5---3-5--5------------------------------------------|
A|-8-10--10-----7-6-5---3-5--5------------------------------------------|
D|-8-10--10-----7-6-5-0-3-5--5------------------------------------------|



e|----------------------------------------------------------------------|
B|----------------------------------------------------------------------|
G|----------------------------------------------------------------------| 2x
D|-7-6-5---5-7-7-7-7---5-7-7--------------------------------------------|
A|-7-6-5---5-7-7-7-7---5-7-7--------------------------------------------|
D|-7-6-5-0-5-7-7-7-7-0-5-7-7--------------------------------------------|



e|----------------------------------------------------------------------|
B|----------------------------------------------------------------------|
G|----------------------------------------------------------------------|
D|-7-6-5---3-5-5--------------------------------------------------------|
A|-7-6-5---3-5-5--------------------------------------------------------|
D|-7-6-5-0-3-5-5----------------12-11-10-0-7-6-5-0----------------------|



e|----------------------------------------------------------------------|
B|----------------------------------------------------------------------|
G|----------------------------------------------------------------------| 4x
D|-x-x-3-----------3----------------------------------------------------|
A|-x-x-3---0-5-3-0-3----------------------------------------------------|
D|-x-x-----0-5-3-0------------------------------------------------------|



e|----------------------------------------------------------------------|Dur
B|----------------------------------------------------------------------|ing
G|----------------------------------------------------------------------|S 
D|------5-3-------------------------------------------------------------|o 
A|-------------5-3-5---8------------------------------------------------|l 
D|-0-0------------------------------------------------------------------|o



e|----------------------------------------------------------------------|
B|----------------------------------------------------------------------|
G|----------------------------------------------------------------------|8x
D|----------------------------------------------------------------------|
A|----------------------------------------------------------------------|
D|-0-0—17-15---12-10-12---15--------------------------------------------|



e|----------------------------------------------------------------------|
B|----------------------------------------------------------------------|
G|----------------------------------------------------------------------| 2x
D|-10-12-12-12-12---10-12-12---12-11-10---------------------------------|
A|-10-12-12-12-12---10-12-12---12-11-10---------------------------------|
D|-10-12-12-12-12---10-12-12---12-11-10-0-------------------------------|



e|-0--------------------------------------------------------------------|
B|-0--------------------------------------------------------------------|
G|-0--------------------------------------------------------------------|
D|-0--------------------------------------------------------------------|
A|-0--------------------------------------------------------------------|
D|-0--------------------------------------------------------------------|



TAB End
Suggest correction
Give kudos to tab author, rate the tab!
1 2 3 4 5
comments
print report bad tab
guest
You may want to rate the tab now too:
select rating
Wanna post a correction for this tab? Suggest correction