Oops, an error
Loading. Please wait.

Spoonman Tab

version 1
version 1

Whole song

Interactive

Video

91,160 views 84 this week
3 commentsread comments
1 2 3 4 5
x 16
add to favorites
launch autoscroll
font size
0
reset
how to read this tab
guitar tuner
Autoscroll
slow
fast
+/-
esc
set tempo
stop
Help us to improve Ultimate-Guitar.com Take our survey!
×
e|-------------------------------------------------------------|
B|-------------------------------------------------------------|
G|-------------------------------------------------------------|
D|--10h12-12-12-12-x-10-12\-7-5-7\-3-0-3h5-5-5-0-0-0-----------|
A|--10h12-12-12-12-x-10-12\-7-5-7\-3-0-3h5-5-5-0-0-0-----------|
E|--10h12-12-12-12-x-10-12\-7-5-7\-3-0-3h5-5-5-0-0-0-----------|

Dont forget to have that Droped D tuning
which means tune the D string (lowest) down two frets
for those who dont know.

  Riff B
e|-------------------------------|
B|-------------------------------|
G|-------------------------------|
D|--10h12-12-12-12-x-10-12\-5----|
A|--10h12-12-12-12-x-10-12\-5----|
E|--10h12-12-12-12-x-10-12\-5----|

Riff C

e|----------------------------------|
B|----------------------------------|
G|----------------------------------|
D|----------------------5p3---------|
A|--------------------------5p3-0---|
E|--5p3-5p3-5p3-0-5-3---------------|

Intro - riff A four times
Verse - B (sing), Riff A, Riff B (sing), riff A twice
Chorus - riff c four times, riff A twice



************************************

| x  Dead note
| h  Hammer-on
| \  Slide down
| p  Pull-off

************************************
Suggest correction
comments
print report bad tab
3 comments total.
0 reply
warrior763 10 Apr 21, 2002 12:00 AM

Pretty good. I love this song! Soundgarden was a good band.

0 reply
rhcp_guitarist 238 May 16, 2003 12:00 AM

i only gave 3 stars cuz u didnt put the solo, etc.
the stuff u have down is pretty good

0 reply
gumbeeman 10 Sep 06, 2006 04:56 PM

perfect others dont sound right in the intro yurs does

guest
You may want to rate the tab now too:
select rating
Wanna post a correction for this tab? Suggest correction