Oops, an error
Loading. Please wait.

Spoonman Bass Tab

version 2
version 2

Interactive

28,557 views 72 this week
5 commentsread comments
1 2 3 4 5
accurate
x 18
add to favorites
launch autoscroll
font size
0
reset
guitar tuner
Autoscroll
slow
fast
+/-
esc
set tempo
stop
Help us to improve Ultimate-Guitar.com Take our survey!
×
Author
Tuning
D A D G B E
Title: Spoonman
Artist: Sound Garden

Tuning: (Drop D) Low to High = D|A|D|G|

Intro (Main Riff)
G--------------------------------------------------|
D--------------------------------------------------|
A--5-5-5-5-5--0-3--5-0--0--------------------------|
D-------------------------5--5-3--0--3h5-5-5-0-0-0-| x4

Verse x2 (Part 1)
"Fell the rythem with your hands...Steel the rythem while you can"
G-------------------------|
D-------------------------|
A--5-5-5-5-5--0-3--5-0~~~~|
D-------------------------|
"Spoonman..."
G|--------------------------------------------------|
D|--------------------------------------------------|
A|--5-5-5-5-5--0-3--5-0--0--------------------------|(repeat this bit again 
D|-------------------------5--5-3--0--3h5-5-5-0-0-0-|      second time)

Part 2

"Spoonman..." (not sure about Pull off(s) e.g. 5p3-5p3-5p3)
G----------------------------------|
D----------------------5-3---------|
A--5-3-5-3-5-3-0-5---3------5-3-0--|
G----------------------------------| x4

Main Riff
"Save Me....."
G--------------------------------------------------|
D--------------------------------------------------|
A--5-5-5-5-5--0-3--5-0--0--------------------------|
D-------------------------5--5-3--0--3h5-5-5-0-0-0-|x2

Play:
Verse(part1)
Part2
Main riff x4
then...

Drums and Bass bit... (again not sure about pull off(s))
G---------------------------------|
D----------------5---3------------|
A--5-3-5-3-5-3-0-------5-3--------|
D--------------------------5-3-0--|x4

Then...
G---------------------|
D---------------------|
A--5-3-5-3-5-3-0------|
D----------------3~~~~|

G---------------------|
D---------------------|
A--5-3-5-3-5-3-0------|
G----------------5~~~~|

Play:
Main Riff x4

Drums play for a bit then join in...
G----------------------------------|
D----------------5---3-------------|
A--5-3-5-3-5-3-0-------5-3---------|
D--------------------------5-3-0---|x16

G----------------------------------|
D----------------------5-3---------|
A--5-3-5-3-5-3-0-5---3-----5-3-0---|
D----------------------------------|x4


Main Riff x4

Outro
G-----------------------|
D-----------------------|
A--5-5-5-5-5--3-0--5-0~~|
D-----------------------|

G-------------|
D-------------|
A--5-5-5-5-5--|
D-------------|

Key:
h = Hammer-on
p = Pull-Off
~ = Let Ring

Well that it...its realy easier then it looks, mostly the main riff.
Hope its right...enjoy!
Suggest correction
comments
print report bad tab
5 comments total. Showing first comments. show 1 bad comment
-1 reply
Zachy Boy 279 wrote on September 29 2007, 03:18 pm

you spelled steal wrong lol, jk... and good tab 4 stars.

0 reply
pizzathehut099 102 wrote on November 16 2008, 09:03 pm

Great tab, and ya those pull offs sound correct

guest
You may want to rate the tab now too:
select rating
Wanna post a correction for this tab? Suggest correction