Oops, an error
Loading. Please wait.

Spoonman tab

version 2
version 2

Whole song

Interactive

Video

183,334 views 375 this week
13 commentsread comments
1 2 3 4 5
x 66
add to favorites
×
Save as Personal and add changes to this tab that will be seen only by you. Learn more ›
×
You can save this tab as Personal to edit and correct it or add notes. All changes will be seen only by you. Learn more »
launch autoscroll
font size
0
reset
how to read this tab
guitar tuner
backing track
0:00
0:00
edit
Autoscroll
slow
fast
+/-
esc
set tempo
stop
Tabbed by:enjoyincubus69
Drop D tuning

   [intro/verse]

E|----------------------------------------------------------------------------|
B|----------------------------------------------------------------------------|
G|----------------------------------------------------------------------------|
D|-10h12--12--12--12----x--10--12\7-----5---7\--3---0--0--3h5--5--5--0--0---0-|
A|-10h12--12--12--12----x--10--12\7-----5---7\--3---0--0--3h5--5--5--0--0---0-|
D|-10h12--12--12--12----x--10--12\7-----5---7\--3---0--0--3h5--5--5--0--0---0-|

  other bit of verse
E|----------------------------------------------------------------------------|
B|----------------------------------------------------------------------------|
G|----------------------------------------------------------------------------|
D|-10h12--12--12--12----x--10--12\5-------------(5)----------------------(5)/-|
A|-10h12--12--12--12----x--10--12\5-------------(5)----------------------(5)/-|
D|-10h12--12--12--12----x--10--12\5-------------(5)----------------------(5)/-|


  [Chorus]

E|----------------------------------|
B|----------------------------------|
G|----------------------------------|
D|----------------------5p3---------|
A|------------------*-------5p3-0---|
D|--5p3-5p3-5p3-0-5-3/3-5-----------|

  bit before solo
E|------------------------------------------------|
B|-------10---------------------------------------|
G|-------12brfull-10h12---------------------------|
D|-10h12----------------10h12---------------------|
A|----------------------------10--(10)------------|
D|------------------------------------------------|

E|-------------------------------------------------------------|
B|-------------------------------------------------------------|
G|-------------------------------------------------------------|
D|-------------------------------------------------------------|
A|-5p3-5p3-5p3-0----------------------------5p3-5p3-5p3-0------|
D|----------------3---------------------------------------5----|

E|------------------------------------------------------------|
B|-------10-------------10h13-3bfull--------------------------|
G|-------12brfull-10h12---------------------------------------|
D|-10h12------------------------------------------------------|
A|------------------------------------------------------------|
D|------------------------------------------------------------|


[Solo]

E|-(10)-----------10h13-13brfull-13p10-13-10-----------------------------|
B|-(13)--------------------------------------13-10h13p10h13p10-----------|
G|-------------------------------------------------------------12-10h12p-|
D|-----------------------------------------------------------------------|
A|-----------------------------------------------------------------------|
D|-----------------------------------------------------------------------|

E|---------------------------------------------------------------|
B|----------------------13----13----13----13----13---------------|
G|-p10----10-10-12bfull----12----12----12----12----12-12-r-12-10-|
D|-----12--------------------------------------------------------|
A|---------------------------------------------------------------|
D|---------------------------------------------------------------|

E|---------------------------------------------------------------------------|
B|---------------------------------------------------------------------------|
G|-12-10-10------------------------------------------------------------------|
D|-----------------------12-12-10-12-12-10-------10-10-12bfull-(12)-(12)---r-|
A|-----------------------------------------12-12-----------------------------|
D|---------------------------------------------------------------------------|

E|---------------------------------------------------------|
B|---------------------------------------------------------|
G|-------10-10-12bfull-(12)----rb--rb---r-12-12-10-10-12---|
D|-12-12---------------------------------------------------|
A|---------------------------------------------------------|
D|---------------------------------------------------------|

E|----------13------------13--------------13bfull---13p10--|
B|------13--13bfull----------------------------------------|
G|-(12)----------------------------------(13)b1/2----------|
D|---------------------------------------------------------|
A|---------------------------------------------------------|
D|---------------------------------------------------------|

E|-13p10--------------------------------------------------------------------|
B|-------13-13p10----10-13p10-10--------------------------------------------|
G|----------------12-------------12p10-12p10-12-12brfull-(12)-b-------(12)\-|
D|--------------------------------------------------------------------------|
A|--------------------------------------------------------------------------|
D|--------------------------------------------------------------------------|

E|-------------------------------------------------------------|
B|-------------------------------------------------------------|
G|-\4/7/14-14-14-14-12p11-14-14p12p11h14-14p12p11--------------|
D|------------------------------------------------12-10--------|
A|-------------------------------------------------------------|
D|-------------------------------------------------------------|

E|---------------------------10--------------------------------------|
B|------12b1/2-13------13-------13-(13)b2--(13)-r(13)\---------------|
G|-(10)--------12bfull-12-r------------------------------------------|
D|-------------------------------------------------------------------|
A|-------------------------------------------------------------------|
D|-------------------------------------------------------------------|



************************************

| x    Dead note
| (n)  Ghost note
| h    Hammer-on
| p    Pull-off
| r    Release
| b    Bend
| /    Slide up
| \    Slide down

************************************

            
            
Suggest correction
Creating personal tab
Creating personal tab
You can edit any tab online and save it as your Personal.

You can edit, replace or remove any tab part or add personal notes – all changes will be seen only by you.

Personal tabs can be accessed anytime from any device, even offline.
Learn more »
comments
print report bad tab
13 comments total. Showing first comments.
+1 reply
subtlebob 10 Jul 13, 2006 05:51 PM

excellent

0 reply
Bws193 50 Mar 22, 2007 04:38 PM

agreed

+9 reply
Chris_Parker 277 Mar 16, 2008 05:15 PM

The way I play the intro/verse is:

|-----------------------------------------------------------|
|-----------------------------------------------------------|
|-----------------------------------------------------------|
|-10h12-12-12-12-x-x-10-x-x-7-x-x-5-x-x-3-3-3-3h5-5-5-0-0-0-|
|-10h12-12-12-12-x-x-10-x-x-7-x-x-5-x-x-3-3-3-3h5-5-5-0-0-0-|
|-10h12-12-12-12-x-x-10-x-x-7-x-x-5-x-x-3-3-3-3h5-5-5-0-0-0-|


But it's good otherwise. I may be wrong, but it's how I play it.

guest
Wanna post a correction for this tab? Suggest correction