Oops, an error
Loading. Please wait.

Spoonman Bass Tab

version 3
version 3

Interactive

1,491 views 1 this week
no commentswrite comment
1 2 3 4 5
worth learning
x 2
add to favorites
launch autoscroll
font size
0
reset
guitar tuner
Tab Pro tools
  • play this tab
  • loop segment
  • change instrument
  • show fretboard
  • metronome
×
Best way to learn
"Spoonman"
Autoscroll
slow
fast
+/-
esc
set tempo
stop
Contributor
This tab is in drop D tuning
From high to low it is:
G
D
A
D

Intro (Main Riff)
G|--------------------------------------------------|
D|--------------------------------------------------|
A|--3h5-5-5-5-5--0-3--5-0---------------------------|
D|-------------------------5--5-3--0--3h5-5-5-0-0-0-| x4

Verse
G|-------------------------|
D|-------------------------| Play Verse, then Main Riff once, then repeat
A|--5-5-5-5-5--0-3--5------|
D|--------------------5~~~~|

Chorus ("Spoonman Come together with your hands)
G|----------------------------------|
D|--0---0---0-----5---3-5-3---------|
A|----3---3---3-0------------5-3-0--|
G|----------------------------------|

Verse
Main Riff 4x

Bridge
G|----------------------------------|
D|--0---0---0-----5---3-5-3---------|
A|----3---3---3-0------------5-3-0--|
G|----------------------------------|

G|-----------------------------------|
D|--0---0---0-----5---3-5-3----------|
A|----3---3---3-0------------5-3-----|
G|-------------------------------3~~~|

G|-----------------------------------|
D|--0---0---0-----5---3-5-3----------|
A|----3---3---3-0------------5-3-----|
G|-------------------------------5~~~|

Main Riff 4x

Drum solo 8x
Enter after 8x with
G|----------------------------------|
D|--0---0---0-----5---3-------------|
A|----3---3---3-0-------5-3---------|
G|---------------------------5-3-0--| 20x

Chorus
Main Riff 4x

Outro
G|-------------------------|
D|-------------------------|
A|--5-5-5-5-5--0-3--5------|
D|--------------------5~~~~|

G|-------------|
D|-------------|
A|--5-5-5-5-5--|
D|-------------|

That should do it, just listen to the song a few times to really know where to come in.
It's not too difficult but getting the timing down is more important that the actual 
at first.
Anyways, enjoy and have a blast!
comments
We did not receive enough feedback on this tab! Please rate:
print report bad tab
1 2 3 4 5
I want to post or [tab]
guest
You may want to rate the tab now too:
select rating
Please do not post tabs as comments. Select "correction" instead!