Oops, an error
Loading. Please wait.

Spoonman Bass Tab

version 5
version 5

Interactive

6,685 views 15 this week
no commentswrite comment
1 2 3 4 5
excellent!
x 13
add to favorites
launch autoscroll
font size
0
reset
guitar tuner
Tab Pro tools
  • play this tab
  • loop segment
  • change instrument
  • show fretboard
  • metronome
×
Best way to learn
"Spoonman"
Autoscroll
slow
fast
+/-
esc
set tempo
stop
Contributor
Difficulty
Tuning
intermediate
D A D G B E
Song:Spoonman
Artist:Soundgarden
Drop D tuning

Main riff
G-----------------------------------------------------------|
D-----------------------------------------------------------|
A-----3-5-5-5-5-0-3-5-0-------------------------------------|
D------------------------5-7-3-0-3h5-5-5-5-0-0-0------------|

Riff end
G----------------------------------------------------------|
D----------------------------------------------------------|
A---3-5-5-5-5-0-3-5----------------------------------------|
D-------------------------5~-------------------------------|

chorus
G-----------------------------------------------|
D----------------------5-3----------------------|
A---------------------------5-3-0---------------|
D---5-3-5-3-5-3-0-5-3---------------------------|

bass solo
G---------------------------------------------------------|
D--------------------5-3----------------------------------|
A----5-3-5-3-5-3-0--------5-3-----------------------------|
D------------------------------5-3-0----------------------|

bridge
G---------------------------------------------------------|
D---------------------------------------------------------|
A------5-3-5-3-5-3-3-------5-3-5-3-5-3-3------------------|
D---------------------3~---------------------5~-----------|

end
G---------------------------------------------------------|
D---------------------------------------------------------|
A--3-5-5-5-5----------------------------------------------|
D---------------------------------------------------------|

ORDER
Main Riff X4
End Riff X1
main riff X1
end riff X1
main riff X1
end riff X1
main riff X2
Chorus X4
Main riff X2
end riff X1
main riff X1
end riff X1
main X2
chorus X4
main X4
Bass solo x4
bridge X1
main X4
bass solo X16
Chorus x4
main X4
end riff X1
END
comments
print report bad tab
I want to post or [tab]
guest
You may want to rate the tab now too:
select rating
Please do not post tabs as comments. Select "correction" instead!