Oops, an error
Loading. Please wait.

Superunknown Tab

version 1
version 1

Whole song

Interactive

25,697 views 42 this week
4 commentsread comments
1 2 3 4 5
x 15
add to favorites
launch autoscroll
font size
0
reset
how to read this tab
guitar tuner
Autoscroll
slow
fast
+/-
esc
set tempo
stop
Help us to improve Ultimate-Guitar.com Take our survey!
×
Author
Tuning (low to high): DGDGBE
e|-----------|-------------------------|
B|-----------|------0-----0------------|
G|--3h5p3p0--|----3-----0----3h5p3p0---|
D|-----------|--5-----3----------------|
A|-----------|-------------------------|
E|-----------|-------------------------|

[Intro]     
(three and a half times (fourth time don't play the hammer-on bit))
e|-------------------------|
B|------0-----0------------|
G|----3-----0--------------|
D|--5-----3----------------|
A|----------------3h5p3p0--|
E|-------------------------|

[Into verse]
e|--------------------------|       |--------------------------|
B|--------------------------|       |--------------------------|
G|--------------------------|       |--------------------------|
D|-------0-----0------------|       |------5------3------------|
A|-----0-----0----3h5p3p0---|       |---------0------3h5p3p0---|
E|---5-----3----------------|       |--------------------------|

[Verses part 1]                       G2 occasionally plays this
e|-------------------------|
B|-------------------------|
G|---------------0-----0---|  (play twice)
D|--3h5p3p0----0-----0-----|  (substitute hammer-on part in part 1 for this one)
A|-----------5-----3-------|
E|-------------------------|

[Verses part 2]
(where the river's high)
e|--------------------|
B|--------------------|
G|--------------------|
D|-------0-----0------|
A|-----0-----0--------|
E|---5-----3------0---|

[last bar before pre-chorus]
e|--------------------------------------------------------|
B|--------------------------------------------------------|
G|------------------------------------------2--2p0-----0--|
D|----5---5---5----9---9---9---9---5\3--3-----------3-----|
A|----0---0---0----0---0---0---0--------------------------|
E|---------------------------------5\3--3-----------------|

[Pre-Chorus]
e|-------------------------------------------------------------|
B|-------------------------------------------------------------|
G|---------------0-----0-----0--------0------------------------|
D|--3h5p3p0----0-----0-----0--------0---------0-------0--------|
A|-----------5-----3-----2--------3---------0-------0----------|
E|----------------------------------------3-------2--------0---|

(last bit before chorus)
e|-------------------------------------|
B|-------------------------------------|
G|-------------------------------------|
D|-----6--5--5----3--5--6--5---3---5---|
A|-------------------------------------|
E|-----6--5--5----3--5--6--5---3---5---|

[Chorus part 1]
e|---------------------------------------|
B|---------------------------------------|
G|---------------------------------------|
D|---5-5-5-5-5-5-5-5---3-3-3-3-3-3-3-3---|
A|---------------------------------------|
E|---5-5-5-5-5-5-5-5---3-3-3-3-3-3-3-3---|

[Chorus part 2]
e|--------------------------|
B|--------------------------|
G|--------------------------|
D|--------------------------|
A|--------------------------|
E|---3---2---0----3--2--0---|

[end-chorus]
e|--------|----------|---3h6p3----------------------|-----------------|
B|--------|-3h6p3----|-------------3h6p3------------|-----------------|
G|---5b7--|----------|----------6---------6p5p3h5p3-|---3--5b7r5--b7--|
D|--------|----------|------------------------------|-5---------------|
A|--------|----------|------------------------------|-----------------|
E|--------|----------|------------------------------|-----------------|

[first solo]
(w/wah)
e|--------------------------------|
B|--------------------------------|
G|-----------0--0--0----------0---|
D|--------3----------------3------|
A|--------------------------------|
E|---0h3---------------oh3--------|

[break]
(after second chorus)
e|---17h19p17h19p17h19p17h19p17-15-13-15-|-15--15-----15--13-|--10-8---8h10--|
B|---------------------------------------|-------------------|---------------|
G|---------------------------------------|-------------------|---------------|
D|---------------------------------------|-------------------|---------------|
A|---------------------------------------|-------------------|---------------|
E|---------------------------------------|-------------------|---------------|

[Solo]
(other guitar plays chorus)
e|-----------------|--------------------------|---------------------|
B|-----------------|--------------------------|---------------------|
G|---------12--14--|-14p12h14p12\10h12p10\9---|--10h12p10\9h10p9\7--|
D|----x\-----------|--------------------------|---------------------|
A|----x\-----------|--------------------------|---------------------|
E|-----------------|--------------------------|---------------------|

[Solo]
(w/wah)
e|---------------------|---------------|---------------------|---------------|
B|---6--8--------------|---------------|------6--5h6p5--6--5-|---------------|
G|---------0--0---0--0-|-1----5---7--5-|-7-------------------|-7--5--7----5--|
D|---------------------|---------------|---------------------|---------------|
A|---------------------|---------------|---------------------|---------------|
E|---------------------|---------------|---------------------|---------------|

e|----------5--7--8p7p5----|----------------------|-----8-10-10-10--10--10p8-|
B|-----------------------6-|--5--6--5--------8----|-/10----------------------|
G|---7---7-----------------|----------7--5--------|--------------------------|
D|-------------------------|----------------------|--------------------------|
A|-------------------------|----------------------|--------------------------|
E|-------------------------|----------------------|--------------------------|

e|--10--8---------------------------|--------------------|------------------|
B|---------10--8--10b12r10---8h10p8-|-\6h8p6\5h6p5--------|------------------|
G|----------------------------------|--------------7--5--|--4b5r4b5r4--------|
D|----------------------------------|--------------------|--------------5---|
A|----------------------------------|--------------------|------------------|
E|----------------------------------|--------------------|------------------|

e|------------------|---------------|--3---3---------------|---------------|
B|------------------|------------3--|----6----3------------|---------6/8---|
G|---------------3--|--5--3--5------|------------5--3h5p3--|---5--7--------|
D|---5---5---5------|---------------|----------------------|---------------|
A|------------------|---------------|----------------------|---------------|
E|------------------|---------------|----------------------|---------------|

e|-----------------|--------------------------|--------------------|
B|--8b10--8b10--6--|-15--13p12-13p12----------|-------12-----------|
G|-----------------|-----------------12-14-10-|-10-12----12--12p10-|
D|-----------------|--------------------------|--------------------|
A|-----------------|--------------------------|--------------------|
E|-----------------|--------------------------|--------------------|

e|---------------------|-----------------|----------------|-------------------|
B|---------------------|--12-------------|----------------|--12---------------|
G|-\9--10p9h10p9\7--5--|------14b16--14--|---10---10--7---|------14b16--14-12-|
D|---------------------|-----------------|----------------|-------------------|
A|---------------------|-----------------|----------------|-------------------|
E|---------------------|-----------------|----------------|-------------------|

e|----------------|---------------------|----------------|
B|----------------|--12-----------------|----------------|
G|--14---10---9---|------14b16--14--12--|--14---10---9---|
D|----------------|---------------------|----------------|
A|----------------|---------------------|----------------|
E|----------------|---------------------|----------------|


************************************

| h  Hammer-on
| p  Pull-off
| \  Slide down
| r  Release
| b  Bend
| /  Slide up

************************************
Suggest correction
comments
print report bad tab
4 comments total. Showing first comments.
+1 reply
MagicsDevil 92 Aug 02, 2010 06:49 PM

I approve.

0 reply
Fred026 10 Jul 09, 2011 10:49 AM

it's hard to play

0 reply
rokrguy93 10 Apr 12, 2013 01:21 PM

I think this is all correct, except that the verse riff has one extra note in the little hammer on/pull off section.

guest
You may want to rate the tab now too:
select rating
Wanna post a correction for this tab? Suggest correction