Oops, an error
Loading. Please wait.

Switch Opens Bass Tab

version 1
version 1

Whole song

Interactive

204 views 3 this week
no commentswrite comment
1 2 3 4 5
please rate
add to favorites
launch autoscroll
font size
0
reset
guitar tuner
Tab Pro tools
  • play this tab
  • loop segment
  • change instrument
  • show fretboard
  • metronome
×
Best way to learn
"Switch Opens"
Autoscroll
slow
fast
+/-
esc
set tempo
stop
Contributor
Song: Switch Opens
Artist: Soundgarden
Album: Down On The Upside
Tabbed by: Jase Warner (www.erikk.co.uk)

Standard Tuning (E,A,D,G)

First Verse:

G|---------------------------------|---------------------------------|
D|*------5-4-----------------------|-------------5-4----------------*|
A|*5-4---------5-4~----------------|-5-4---3-2---------5-4~---------*|
E|---------------------------------|---------------------------------|

G|---------------------------------|---------------------------------|
D|*------5-4-----------------------|-------------5-4----------------*|
A|*5-4---------5-4~----------------|-5-4---3-2---------5-4~---------*|
E|---------------------------------|---------------------------------| x2

Verse Part #2:

G|-----7------------------------|-----7------------------------|
D|*--7-------------4p5-4b-0-----|---7-------------4p5-4b-0----*|
A|*5-----5---0-5-0----------5---|-5-----5---0-5-0----------5--*|
E|------------------------------|------------------------------|

G|-----7------------------------|-----7------------------------|
D|*--7-------------4p5-4b-0-----|---7-------------4p5-4b-0----*|
A|*5-----5---0-5-0----------5---|-5-----5---0-5-0----------5--*|
E|------------------------------|------------------------------| x2

Break:

G|------------------------------|
D|*----7-----------4p5-4b-0----*|
A|*5-----5---0-5-0----------5~-*|
E|------------------------------|

Pre-Chorus:

G|----------------------------------------------------------------------|
D|*-----7-7-------5-5-------7-7-------5-5-------7-7---------5-5--------*|
A|*-0-5-------5-5-------5-5-------5-5-------5-5-------5-5-------5~-----*|
E|----------------------------------------------------------------------|

G|----------------------------------------------------------------------|
D|*-----7-7-------5-5-------7-7-------5-5-------7-7---------5-5--------*|
A|*-0-5-------5-5-------5-5-------5-5-------5-5-------5-5-------5~-----*|
E|----------------------------------------------------------------------|

Chorus:

G|---------------------------------|---------------------------------|
D|*------5-4-----------------------|-------------5-4----------------*|
A|*5-4---------5-4~----------------|-5-4---3-2---------5-4~---------*|
E|---------------------------------|---------------------------------|

G|---------------------------------|---------------------------------|
D|*------5-4-----------------------|-------------5-4----------------*|
A|*5-4---------5-4~----------------|-5-4---3-2---------5-4~---------*|
E|---------------------------------|---------------------------------| x2

Second Verse:

G|-----7------------------------|-----7------------------------|
D|*--7-------------4p5-4b-0-----|---7-------------4p5-4b-0----*|
A|*5-----5---0-5-0----------5---|-5-----5---0-5-0----------5--*|
E|------------------------------|------------------------------|

G|-----7------------------------|-----7------------------------|
D|*--7-------------4p5-4b-0-----|---7-------------4p5-4b-0----*|
A|*5-----5---0-5-0----------5---|-5-----5---0-5-0----------5--*|
E|------------------------------|------------------------------| x2

Break:

G|------------------------------|
D|*----7-----------4p5-4b-0----*|
A|*5-----5---0-5-0----------5~-*|
E|------------------------------|

Pre-Chorus:

G|----------------------------------------------------------------------|
D|*-----7-7-------5-5-------7-7-------5-5-------7-7---------5-5--------*|
A|*-0-5-------5-5-------5-5-------5-5-------5-5-------5-5-------5~-----*|
E|----------------------------------------------------------------------|

G|----------------------------------------------------------------------|
D|*-----7-7-------5-5-------7-7-------5-5-------7-7---------5-5--------*|
A|*-0-5-------5-5-------5-5-------5-5-------5-5-------5-5-------5~-----*|
E|----------------------------------------------------------------------|

Outro:

G|-14---14--14--14p12p11--11---11----|--14---14--14--14p12p11--11---11--|
D|*-------------------------------12-|--------------------------------12|
A|*----------------------------------|----------------------------------|
E|-----------------------------------|----------------------------------|

G|--14---14--14--14p12p11--11---11---|-------------------|
D|*--------------------------------12|--14---14--14---/-*|
A|*----------------------------------|------------------*|
E|-----------------------------------|-------------------|

G|---------------------------------|-----------------|
D|*------5-4-----------------------|----------------*|
A|*5-4---------5-4---3-2-----------|-3-2-0~---------*|
E|---------------------------------|-----------------|
comments
We did not receive enough feedback on this tab! Please rate:
print report bad tab
1 2 3 4 5
I want to post or [tab]
guest
You may want to rate the tab now too:
select rating
Please do not post tabs as comments. Select "correction" instead!