Oops, an error
Loading. Please wait.

Taree Tab

version 1
version 1

Intro

Whole song

6,927 views 18 this week
1 commentread comment
1 2 3 4 5
excellent!
x 5
add to favorites
launch autoscroll
font size
0
reset
how to read this tab
guitar tuner
Tab Pro tools
  • play this tab
  • loop segment
  • change instrument
  • show fretboard
  • metronome
Autoscroll
slow
fast
+/-
esc
set tempo
stop
Contributor
Taree

Soundgarden

Tabbed by:Brownbear93

Tuning: DADGBE


Intro/Riff:                                                        x2
|-------|--------------------------------------------------------------|
|-------|--------------------------------------------------------------|
|-------|--------------------------------------------------------------|
|--0-/--|--5--8---8-5--0-3-/5-5-0-3--8------------8-------3-----3------|
|--0-/--|--5-----------0-3-/5-5-0-3------8/10\8-----8\5------5---------|
|--0-/--|--5----5------0-3-/5-5-0-3----5--------5-------3----------0---|


Verse:
|------------------------------------------------------------------------|
|------------------------------------------------------------------------|
|------------------------------------------------------------------------|x4
|--5--8---8-5--0-3-/5-5-0-12--15----------------15----------10----10-----|
|--5-----------0-3-/5-5-0-12--------15/17\15-------15\12-------12--------|
|--5----5------0-3-/5-5-0-12-----12----------12----------10-----------0--|


Chorus:
G1
|------------------------------|
|------------------------------|
|------------------------------|x4
|--5-5----5-8--10---10-10-8----|
|--5-5----5-8--10---10-10-8----|
|--5-5----5-8--10---10-10-8----|


G2                                      Ending 1:            Ending 2:
|----------------------------------------|--------------------|-----------------|
|----------------------------------------|--------------------|-----------------|
|----------------------------------------|--------------------|-----------------|x4
|------8-----------10/12-10~-------------|-10/12-10~----------|-10/12~----10~---|
|----------8/10---------------10h12-8~---|-----------10h12-8~-|-----------------|
|---5----5------8----------------------8-|--------------------|-----------------|


Both Guitars:
|---------------------------------|
|---------------------------------|
|---------------------------3~----|
|-------3b--------3b--------------|
|---------------------------------|
|---5---------5--------5-5--------|


G1 plays Main/Intro riff

G2
|----------------------------|
|--(13~)---------------------|
|----------------(12~)-------|
|----------------------------|
|----------------------------|
|----------------------------|

G3 w/ tremolo effect
|-----------------------------------------|
|-----------------------------------------|
|-----------------------------------------|
|--5-----8----3---5-----8----3------3h5---|
|--------------------------------5--------|
|-----------------------------------------|


Verse

Chorus


Bridge:
|-----------------------------------------------|
|-----------------------------------------------|
|-----------------------8p5-5~------------------|x2
|--------8p5-----5~--------------8\5-3~---3---/-|
|------------8p5--------------------------------|
|---5-5-----------------------------------------|


Solo: w/wah        
|-----------------------------------------------------------------------------|
|--------------------------------------------x----3---------------------------|
|--3-5b--(5r-5r-5r-5r-5r)-3-5p3-5p3-------x-x-3h5---5b-5-3--5brp3-5p3~--------|
|-----------------------------------5~----x------------------------------5~---|
|-----------------------------------------------------------------------------|
|-----------------------------------------------------------------------------|
      *gradually release


|----------------------------------------------------------------------|
|---8br-6-5-6--x-6~---\---------pb3r------------------/--6~------------|
|-------------------------------------3--5brbr~------------------------|
|----------------------------------------------------------------------|
|----------------------------------------------------------------------|
|----------------------------------------------------------------------|


Chorus


Post Chorus:                                                            x2
|-------------------------------------------------|------------------------|
|-------------------------------------------------|------------------------|
|---------------------------3~--------------------|------------------------|
|-------3b--------3b----------------3b--------3b--|--7p5-5-------5p3-------|
|-------------------------------------------------|--5---3-------3----3p1--|
|---5---------5--------5-5------5---------5-------|--5---3-------3----1----|


Bridge


both guitars end on:
|---------|
|---------|
|---------|
|--5-5----|
|--5-5----|
|--5-5----|


************************************

| /   slide up
| \   slide down
| h   hammer-on
| p   pull-off
| ~   vibrato
| +   harmonic
| x   Mute note
| b   Bend
| pb  Pre-bend
| br  Bend release
| pbr Pre-bend release
| brb Bend release bend

************************************
comments
print report bad tab
1 comment total.
0 reply
nightmare75 wrote on March 22 2014, 01:57 pm

|-------|--------------------------------------------------------------|
|-------|--------------------------------------------------------------|
|-------|--------------------------------------------------------------|
|--0-/--|--5--8---8-5--0-3-/5-5-0-3--8------------8-------3-----3------|
|--0-/--|--5-----------0-3-/5-5-0-3------8/10\8-----8\5------5---------|
|--0-/--|--5----5------0-3-/5-5-0-3----5--------5-------3----------0---|

should be

|-------|--------------------------------------------------------------|
|-------|--------------------------------------------------------------|
|-------|--------------------------------------------------------------|
|--0-/--|--5--8---8-5--0-3-/5-5-0-5--8------------8-------3-----3------|
|--0-/--|--5-----------0-3-/5-5-0-5------8/10\8-----8\5------5---------|
|--0-/--|--5----5------0-3-/5-5-0-5----5--------5-------3----------0---|

I want to post or [tab]
guest
You may want to rate the tab now too:
select rating
Please do not post tabs as comments. Select "correction" instead!