Oops, an error
Loading. Please wait.

The Day I Tried To Live Tab

version 2
version 2

Whole song

Interactive

35,937 views 66 this week
1 commentread comment
1 2 3 4 5
x 14
add to favorites
launch autoscroll
font size
0
reset
how to read this tab
guitar tuner
Autoscroll
slow
fast
+/-
esc
set tempo
stop
Help us to improve Ultimate-Guitar.com Take our survey!
×
Author
SOUNDGARDEN

THE DAY I TRIED TO LIVE

tabbed by dan

TUNING (low to high): E E(down) B(down) B(up) B B(down)

e|--------------------------------------------|
B|--------------------------------------------|
G|---15--14---12-15-14-\-9---9--9-/-12-12-----|
D|----0---0----0--0--0---9---9--9-/-12-12--0--|
A|-----------------------0---0--0-/--0--0-----|
E|--------------------------------------------|
intro g1     repeat as necessary

e|-------14-\-9--9--9-|-/-12--12-/-14-\-9--9-------9-/-|
B|--------------------|--------------------------------|
G|--------------------|--------------------------------|
D|--------------------|--------------------------------|
A|--------------------|--------------------------------|
E|--------------------|--------------------------------|
intro g1  w/slide

e|--/-12---12-/-14-\-9---9----9--/--|-/-12--12-/-14--14-\12---12-/-|
B|-----------------------------------|-----------------------------|
G|-----------------------------------|-----------------------------|
D|-----------------------------------|-----------------------------|
A|-----------------------------------|-----------------------------|
E|-----------------------------------|-----------------------------|
intro g1 continued

e|--/--22-\--17---17-/-22-\-17--17-/--|--/-22-\-17--17-/-22-\-12---12--|
B|------------------------------------|--------------------------------|
G|------------------------------------|--------------------------------|
D|------------------------------------|--------------------------------|
A|------------------------------------|--------------------------------|
E|------------------------------------|--------------------------------|
intro g1 continued
    
    PM----------------|
|-------------------------|
|-------------------------|
|-------------------------|
|-------------------------|
|-------------------------|
|------5--5--0----12------|
fill into verse  

PM-----------------------------------------------------------------|
|---------------------------------------------------------------------|
|---------------------------------------------------------------------|
|---------------------------------------------------------------------|
|---------------------------------------------------------------------|
|--------------12-------------------------------8-----------------5-/-|
|--12-12-12-12-12---12-11-0-10-0-9-0----8-8-8-8-8---7-6-0-5-5-5-5-5-/-|
verses                                |----no PM last time-------------|

e|------------------------------------------------|
B|------------------------------------------------|
G|------------------------------------------------|
D|--12-12-12-12-12---12-11-------10-------9-------|
A|--12-12-12-12-12---12-11-------10-------9-------|
E|--12-12-12-12-12---12-11-11-11-10-10-10-9-9-9---|
g1

e|--12-12-12-12-12---12-11-------10-------9-------|
B|--12-12-12-12-12---12-11-------10-------9-------|
G|--12-12-12-12-12---12-11-------10-------9-------|
D|--12-12-12-12-12---12-11-11-11-10-10-10-9-9-9---|
A|------------------------------------------------|
E|------------------------------------------------|
g2

e|-------------------------------------|
B|-------------------------------------|
G|-------------------------------------|
D|--8-8-8-8-8---7--6-----5-5-5-5-5-5---|
A|--8-8-8-8-8---7--6-----5-5-5-5-5-5---|
E|--8-8-8-8-8---7--6-6-6-5-5-5-5-5-5---|
g1

e|--8-8-8-8-8---7--6-----5-5-5-5-5-5---|
B|--8-8-8-8-8---7--6-----5-5-5-5-5-5---|
G|--8-8-8-8-8---7--6-----5-5-5-5-5-5---|
D|--8-8-8-8-8---7--6-6-6-5-5-5-5-5-5---|
A|-------------------------------------|
E|-------------------------------------|
g2

e|---------------------------------------------------------|
B|---------------------------------------------------------|
G|--7--7--7--7---8--8--8--8---12--12-12--12--9--9---9--9---|
D|--7--7--7--7---8--8--8--8---12--12-12--12--9--9---9--9---|
A|--7--7--7--7---8--8--8--8---12--12-12--12--9--9---9--9---|
E|--7--7--7--7---8--8--8--8---12--12-12--12--9--9---9--9---|
g1 chorus  (one more time around...)

e|--15--14--12--15-14--8--8-8-8--11--11--|
B|--15--14--12--15-14--8--8-8-8--11--11--|
G|--15--14--12--15-14--8--8-8-8--11--11--|
D|--15--14--12--15-14--8--8-8-8--11--11--|
A|---------------------------------------|
E|---------------------------------------|
g2 chorus

e|--------------------------------------------|
B|--------------------------------------------|
G|---12--12--12--12--12--12---7---7--7-7--7---|
D|---12--12--12--12--12--12---7---7--7-7--7---|
A|---12--12--12--12--12--12---7---7--7-7--7---|
E|---12--12--12--12--12--12---7---7--7-7--7---|
g1 chorus end  (the day, i tried to.....)

e|--15--14--12--15-14---7---7--7--7---10--10----|
B|--15--14--12--15-14---7---7--7--7---10--10----|
G|--15--14--12--15-14---7---7--7--7---10--10----|
D|--15--14--12--15-14---7---7--7--7---10--10----|
A|----------------------------------------------|
E|----------------------------------------------|
g2 chorus end

e|------------------------------------------|
B|------------------------------------------|
G|------------------------------------------|
D|---9-9-9-9-9--9--8-------7-------6--------|
A|---9-9-9-9-9--9--8-------7-------6--------|
E|---9-9-9-9-9--9--8--8-8--7--7-7--6--6-6---|
g1 then play this  (liiiiiiiiiiiiiiiiiiive......)

e|---9-9-9-9-9--9--8-------7-------6--------|
B|---9-9-9-9-9--9--8-------7-------6--------|
G|---9-9-9-9-9--9--8-------7-------6--------|
D|---9-9-9-9-9--9--8--8-8--7--7-7--6--6-6---|
A|------------------------------------------|
E|------------------------------------------|
g2

e|----------------------------------------|
B|----------------------------------------|
G|----------------------------------------|
D|---5-5-5-5-5--4--3-------2-2-2-2-2-2----|
A|---5-5-5-5-5--4--3-------2-2-2-2-2-2----|
E|---5-5-5-5-5--4--3--3-3--2-2-2-2-2-2----|
g1

e|---5-5-5-5-5--4--3-------2-2-2-2-2-2----|
B|---5-5-5-5-5--4--3-------2-2-2-2-2-2----|
G|---5-5-5-5-5--4--3-------2-2-2-2-2-2----|
D|---5-5-5-5-5--4--3--3-3--2-2-2-2-2-2----|
A|----------------------------------------|
E|----------------------------------------|
g2

e|----------------7---------|
B|-------------5------------|
G|---0-----------------0----|
D|--------------------------|
A|--------------------------|
E|--------------------------|
g1 interlude repeat as necessary

    harmonics
e|---12---|
B|---12---| play this twice, then play g1 intro part a few times
G|---12---|
D|---12---|
A|---12---|
E|--------|
g2 interlude

the rest is just repeats. easy to figure out what goes where.



************************************

| /  Slide up
| \  Slide down

************************************
Suggest correction
comments
print report bad tab
1 comment total.
+4 reply
Izzyplatypus73 10 May 11, 2013 10:55 AM

I would just like to say that this is a very funky tuning. It sounds pretty cool though. Very accurate tab, in my opinion.

guest
You may want to rate the tab now too:
select rating
Wanna post a correction for this tab? Suggest correction