Oops, an error
Loading. Please wait.

Ty Cobb Bass Tab

version 1
version 1

Whole song

Interactive

563 views 1 this week
1 commentread comment
1 2 3 4 5
excellent!
x 4
add to favorites
launch autoscroll
font size
0
reset
guitar tuner
Autoscroll
slow
fast
+/-
esc
set tempo
stop
Help us to improve Ultimate-Guitar.com Take our survey!
×
Author
Song: Ty Cobb
Artist: Soundgarden
Album: Down On The Upside
Tabbed by: Jase Warner (www.erikk.co.uk)

Standard Tuning (E,A,D,G)

Intro (after mandolins)

G|--------------------|-----------------|--------------------|-------------|-------------|
D|*-------------------|-----------------|-------------------*|*5---5---5---|-5---5---5--*|
A|6p7-7-7-7-7-7-7-7-7-|-7-7-7-7-7-7-7-7-|6p7-7-7-7-7-7-7-7-7*|*--4---7---4-|---4---7---4*|
E|--------------------|-----------------|--------------------|-------------|-------------|

First Verse:

G|--------------------|-----------------|--------------------|-------------|-------------|
D|*-------------------|-----------------|-------------------*|*5---5---5---|-5---5---5--*|
A|6p7-7-7-7-7-7-7-7-7-|-7-7-7-7-7-7-7-7-|6p7-7-7-7-7-7-7-7-7*|*--4---7---4-|---4---7---4*|
E|--------------------|-----------------|--------------------|-------------|-------------|

G|--------------------|-----------------|--------------------|-------------|-------------|
D|*-------------------|-----------------|-------------------*|*5---5---5---|-5---5---5--*|
A|6p7-7-7-7-7-7-7-7-7-|-7-7-7-7-7-7-7-7-|6p7-7-7-7-7-7-7-7-7*|*--4---7---4-|---4---7---4*|
E|--------------------|-----------------|--------------------|-------------|-------------|

First Chorus:

G|--------------------|-----------------|-----------------|-----------------|
D|*-------------------|-----------------|-----------------|----------------*|
A|6p7-7-7-7-7-7-7-7-7-|-5-5-5-5-5-5-5-5-|-----------------|----------------*|
E|--------------------|-----------------|-5-5-5-5-5-5-5-3-|-0-0-0-0-0-0-0-0-|

G|--------------------|-----------------|-----------------|-----------------|
D|*-------------------|-----------------|-----------------|----------------*|
A|6p7-7-7-7-7-7-7-7-7-|-5-5-5-5-5-5-5-5-|-----------------|----------------*|
E|--------------------|-----------------|-5-5-5-5-5-5-5-3-|-0-0-0-0-0-0-0-0-|

Break:

G|--------------------|-----------------|--------------------|-------------|-------------|
D|*-------------------|-----------------|-------------------*|*5---5---5---|-5---5---5--*|
A|6p7-7-7-7-7-7-7-7-7-|-7-7-7-7-7-7-7-7-|6p7-7-7-7-7-7-7-7-7*|*--4---7---4-|---4---7---4*|
E|--------------------|-----------------|--------------------|-------------|-------------|

Second Verse:

G|--------------------|-----------------|--------------------|-------------|-------------|
D|*-------------------|-----------------|-------------------*|*5---5---5---|-5---5---5--*|
A|6p7-7-7-7-7-7-7-7-7-|-7-7-7-7-7-7-7-7-|6p7-7-7-7-7-7-7-7-7*|*--4---7---4-|---4---7---4*|
E|--------------------|-----------------|--------------------|-------------|-------------|

G|--------------------|-----------------|--------------------|-------------|-------------|
D|*-------------------|-----------------|-------------------*|*5---5---5---|-5---5---5--*|
A|6p7-7-7-7-7-7-7-7-7-|-7-7-7-7-7-7-7-7-|6p7-7-7-7-7-7-7-7-7*|*--4---7---4-|---4---7---4*|
E|--------------------|-----------------|--------------------|-------------|-------------|

Second Chorus:

G|--------------------|-----------------|-----------------|-----------------|
D|*-------------------|-----------------|-----------------|----------------*|
A|6p7-7-7-7-7-7-7-7-7-|-5-5-5-5-5-5-5-5-|-----------------|----------------*|
E|--------------------|-----------------|-5-5-5-5-5-5-5-3-|-0-0-0-0-0-0-0-0-|

G|--------------------|-----------------|-----------------|
D|*-------------------|-----------------|----------------*|
A|6p7-7-7-7-7-7-7-7-7-|-5-5-5-5-5-5-5-5-|----------------*|
E|--------------------|-----------------|-5-5-5-5-5-5-5-3-|

Break:

G|----------------------------------|----------------------------------|
D|*---------------------------------|---------------------------------*|
A|*--12p0-10p0-----12p0---10p0------|---12p0-10p0-----12p0---10p0-----*|
E|-0-----------0-0------0-------0-0-|-0-----------0-0------0-------0-0-|

G|----------------------------------|----------------------------------|
D|*---------------------------------|---------------------------------*|
A|*--12p0-10p0-----12p0---10p0------|---12p0-10p0-----12p0---10p0-----*|
E|-0-----------0-0------0-------0-0-|-0-----------0-0------0-------0-0-|

Bridge:

G|---------------------------------|---------------------------------|
D|*--------------------------------|--------------------------------*|
A|*12-x-10-x-9p10--7--7-7-7-7-7-7-|-12-x-10-x-9p10--7--7-7-7-7-7-7*|
E|---------------------------------|---------------------------------|

G|---------------------------------|---------------------------------|
D|*--------------------------------|--------------------------------*|
A|*12-x-10-x-9p10--7--7-7-7-7-7-7-|-12-x-10-x-9p10--7--7-7-7-7-7-7*|
E|---------------------------------|---------------------------------|

G|---------------------------------|---------------------------------|
D|*--------------------------------|--------------------------------*|
A|*12-x-10-x-9p10--7--7-7-7-7-7-7-|-12-x-10-x-9p10--7--7-7-7-7-7-7*|
E|---------------------------------|---------------------------------|

G|---------------------|
D|*-------------------*|
A|*12-x-10-x-9p10--7-*|
E|---------------------|

Break:

G|---------|---------|---------|
D|*--------|---------|--------*|
A|*7-7-7-7-|-5-5-5-5-|--------*|
E|---------|---------|-5-5-5-3-|

G|----------------------------------|----------------------------------|
D|*---------------------------------|---------------------------------*|
A|*--12p0-10p0-----12p0---10p0------|---12p0-10p0-----12p0---10p0-----*|
E|-0-----------0-0------0-------0-0-|-0-----------0-0------0-------0-0-|

G|---------|---------|---------|
D|*--------|---------|--------*|
A|*7-7-7-7-|-5-5-5-5-|--------*|
E|---------|---------|-5-5-5-3-|

G|----------------------------------|----------------------------------|
D|*---------------------------------|---------------------------------*|
A|*--12p0-10p0-----12p0---10p0------|---12p0-10p0-----12p0---10p0-----*|
E|-0-----------0-0------0-------0-0-|-0-----------0-0------0-------0-0-|

Third Chorus:

G|--------------------|-----------------|-----------------|
D|*-------------------|-----------------|----------------*|
A|6p7-7-7-7-7-7-7-7-7-|-5-5-5-5-5-5-5-5-|----------------*|
E|--------------------|-----------------|-5-5-5-5-5-5-5-3-|

G|----------------------------------|----------------------------------|
D|*---------------------------------|---------------------------------*|
A|*--12p0-10p0-----12p0---10p0------|---12p0-10p0-----12p0---10p0-----*|
E|-0-----------0-0------0-------0-0-|-0-----------0-0------0-------0-0-|

G|--------------------|-----------------|-----------------|
D|*-------------------|-----------------|----------------*|
A|6p7-7-7-7-7-7-7-7-7-|-5-5-5-5-5-5-5-5-|----------------*|
E|--------------------|-----------------|-5-5-5-5-5-5-5-3-|

Break:

G|----------------------------------|----------------------------------|
D|*---------------------------------|---------------------------------*|
A|*--12p0-10p0-----12p0---10p0------|---12p0-10p0-----12p0---10p0-----*|
E|-0-----------0-0------0-------0-0-|-0-----------0-0------0-------0-0-|

G|----------------------------------|----------------------------------|
D|*---------------------------------|---------------------------------*|
A|*--12p0-10p0-----12p0---10p0------|---12p0-10p0-----12p0---10p0-----*|
E|-0-----------0-0------0-------0-0-|-0-----------0-0------0-------0-0-|

G|----------------------------------|----------------------------------|
D|*---------------------------------|---------------------------------*|
A|*--12p0-10p0-----12p0---10p0------|---12p0-10p0-----12p0---10p0-----*|
E|-0-----------0-0------0-------0-0-|-0-----------0-0------0-------0-0-|

G|---------------------------------|---------------------------------|
D|*--------------------------------|--------------------------------*|
A|*12-x-10-x-9p10--7--7-7-7-7-7-7-|-12-x-10-x-9p10--7--7-7-7-7-7-7*|
E|---------------------------------|---------------------------------|

G|---------------------------------|---------------------------------|
D|*--------------------------------|--------------------------------*|
A|*12-x-10-x-9p10--7--7-7-7-7-7-7-|-12-x-10-x-9p10--7--7-7-7-7-7-7*|
E|---------------------------------|---------------------------------|

G|---------------------------------|---------------------------------|
D|*--------------------------------|--------------------------------*|
A|*12-x-10-x-9p10--7--7-7-7-7-7-7-|-12-x-10-x-9p10--7--7-7-7-7-7-7*|
E|---------------------------------|---------------------------------|

G|---------------------------------|
D|*-------------------------------*|
A|*12-x-10-x-9p10--7--7-7-7-7-7-7*|
E|---------------------------------|

Ending:

G|-------------|-------------|
D|*5---5---5---|-5---5---5--*|
A|*--4---7---4-|---4---7---4*|
E|-------------|-------------|

G|--------------------|-----------------|--------------------|-------------|-------------|
D|*-------------------|-----------------|-------------------*|*5---5---5---|-5---5------*|
A|6p7-7-7-7-7-7-7-7-7-|-7-7-7-7-7-7-7-7-|6p7-7-7-7-7-7-7-7-7*|*--4---7---4-|---4---7----*|
E|--------------------|-----------------|--------------------|-------------|-------------|
Suggest correction
What's this?
You can suggest a correction to this tab. Community and Mods will review your correction and vote to approve or reject it.
comments
print report bad tab
1 comment total.
0 reply
bobablonde 86 wrote on April 17 2014, 04:31 pm

Excellent tab, thanks

guest
You may want to rate the tab now too:
select rating
Please do not post tabs as comments. Select "correction" instead!