Oops, an error
Loading. Please wait.

Ultramega Ok Tab

930 views 3 this week
no commentswrite comment
1 2 3 4 5
1 last vote to show rating
add to favorites
launch autoscroll
font size
0
reset
how to read this tab
guitar tuner
Autoscroll
slow
fast
+/-
esc
set tempo
stop
Help us to improve Ultimate-Guitar.com Take our survey!
×
Hey people, I am in love with Soundgarden, so I decided to tab out their albums in
order, complete with lyrics. Here is Ultramega OK, produced in 1988 by SST Records.
Tabbed By: Drew Waits
Email:ItsamagicBanana@Gmail.com

This is my first tab, and I'm not going to expect perfection, although i will strived
for it. Hold no punches when commenting, if it sucks, tell me so, and all corrections are
appreciated and will be taken into account. Thanks everyone. This will be a work in 
progress, I'll be tabbing a song out avery day or two, depending on time constraints. Please
vote based on the *Completed* songs you see. See bottom for updates.

1. Flower


Tuning:Drop D (eBGDAD)

Intro

 0:00
 |    |                             | x2
e|----|-----------------------------|
B|----|----8h10-----10-----8-----10-|
G|----|----7--------7------7-----7--|
D|--0-|-0--------0------0-----0-----|
A|--0-|-0--------0------0-----0-----|
E|--0-|-0--------0------0-----0-----|

For ^ this note, strum and let ring, then fluctuate the volume.

Verse

 0:38
 |              x2|        1st|      2nd| x2
 |----------------|-----------|---------|
B|----------------|-----------|---------|
G|----------------|-----------|---------|
D|-0--3-0-3h5-3-0-|-0-3-0-3h5-|-0-3-0-3-|
A|-0--3-0-3h5-3-0-|-0-3-0-3h5-|-0-3-0-3-|
E|-0--3-0-3h5-3-0-|-0-3-0-3h5-|-0-3-0-3-|

Chorus

 0:48
 |              x2|        1st|      2nd| x3
 |----------------|-----------|---------|
B|----------------|-----------|---------|
G|----------------|-----------|---------|
D|-0--3-0-3h5-3-0-|-0-3-0-3h5-|-0-3-0-3-|
A|-0--3-0-3h5-3-0-|-0-3-0-3h5-|-0-3-0-3-|
E|-0--3-0-3h5-3-0-|-0-3-0-3h5-|-0-3-0-3-|

 "All of seventeen, Eyes of Purple Green"
 "Treated Like a Queen, she was"

e|---------------------------------------| x2
B|---------------------------------------|
G|---------------------------------------|
D|-10--12-10-12-13-12-10--12-10-12-13/15-|
A|-10--12-10-12-13-12-10--12-10-12-13/15-|
E|-10--12-10-12-13-12-10--12-10-12-13/15-|

 "On borrowed Self Esteem"

Verse

 1:08
 |              x2|        1st|      2nd| x2
 |----------------|-----------|---------|
B|----------------|-----------|---------|
G|----------------|-----------|---------|
D|-0--3-0-3h5-3-0-|-0-3-0-3h5-|-0-3-0-3-|
A|-0--3-0-3h5-3-0-|-0-3-0-3h5-|-0-3-0-3-|
E|-0--3-0-3h5-3-0-|-0-3-0-3h5-|-0-3-0-3-|

Chorus

 1:18
 |              x2|        1st|      2nd| x3
 |----------------|-----------|---------|
B|----------------|-----------|---------|
G|----------------|-----------|---------|
D|-0--3-0-3h5-3-0-|-0-3-0-3h5-|-0-3-0-3-|
A|-0--3-0-3h5-3-0-|-0-3-0-3h5-|-0-3-0-3-|
E|-0--3-0-3h5-3-0-|-0-3-0-3h5-|-0-3-0-3-|

 "She would do a dance, A painful Masquerade"
 "Spinning you into her web"

e|---------------------------------------| x2
B|---------------------------------------|
G|---------------------------------------|
D|-10--12-10-12-13-12-10--12-10-12-13/15-|
A|-10--12-10-12-13-12-10--12-10-12-13/15-|
E|-10--12-10-12-13-12-10--12-10-12-13/15-|

 "Along her vain Parade"

Verse

 1:38
 |              x2|        1st|      2nd| x2
 |----------------|-----------|---------|
B|----------------|-----------|---------|
G|----------------|-----------|---------|
D|-0--3-0-3h5-3-0-|-0-3-0-3h5-|-0-3-0-3-|
A|-0--3-0-3h5-3-0-|-0-3-0-3h5-|-0-3-0-3-|
E|-0--3-0-3h5-3-0-|-0-3-0-3h5-|-0-3-0-3-|

Chorus

 1:48
 |              x2|        1st|      2nd| x3
 |----------------|-----------|---------|
B|----------------|-----------|---------|
G|----------------|-----------|---------|
D|-0--3-0-3h5-3-0-|-0-3-0-3h5-|-0-3-0-3-|
A|-0--3-0-3h5-3-0-|-0-3-0-3h5-|-0-3-0-3-|
E|-0--3-0-3h5-3-0-|-0-3-0-3h5-|-0-3-0-3-|

 "In her uniform, studded brass and steel"
 "Kissing napkin lipstick Stain"

e|---------------------------------------| x2
B|---------------------------------------|
G|---------------------------------------|
D|-10--12-10-12-13-12-10--12-10-12-13/15-|
A|-10--12-10-12-13-12-10--12-10-12-13/15-|
E|-10--12-10-12-13-12-10--12-10-12-13/15-|

 "And smearing sincerity"

Breakdown
 2:09
 |                             | x2
e|-----------------------------|
B|----8h10-----10-----8-----10-|
G|----7--------7------7-----7--|
D|-0--------0------0-----0-----|
A|-0--------0------0-----0-----|
E|-0--------0------0-----0-----|

 "Along her vain parade"
 "Along her veins"

Bridge

 2:36
 |
e|-----------------------------------------------------| x2
B|-----------------------------------------------------|
G|-----------------------------------------------------|
D|-0--3-3-3-3-3-0--5-5-5-5-3--0--3-3-3-3-3-0--5-5-5-10-|
A|-0--3-3-3-3-3-0--5-5-5-5-3--0--3-3-3-3-3-0--5-5-5-10-|
E|-0--3-3-3-3-3-0--5-5-5-5-3--0--3-3-3-3-3-0--5-5-5-10-|

Verse

 2:46
 |              x2|        1st|      2nd| x2
 |----------------|-----------|---------|
B|----------------|-----------|---------|
G|----------------|-----------|---------|
D|-0--3-0-3h5-3-0-|-0-3-0-3h5-|-0-3-0-3-|
A|-0--3-0-3h5-3-0-|-0-3-0-3h5-|-0-3-0-3-|
E|-0--3-0-3h5-3-0-|-0-3-0-3h5-|-0-3-0-3-|


Chorus

 2:56
 |              x2|        1st|      2nd| x3
 |----------------|-----------|---------|
B|----------------|-----------|---------|
G|----------------|-----------|---------|
D|-0--3-0-3h5-3-0-|-0-3-0-3h5-|-0-3-0-3-|
A|-0--3-0-3h5-3-0-|-0-3-0-3h5-|-0-3-0-3-|
E|-0--3-0-3h5-3-0-|-0-3-0-3h5-|-0-3-0-3-|

 "Time crept up on her, She's early gray"
 "Her reflection looks concerned"

e|---------------------------------------| x2
B|---------------------------------------|
G|---------------------------------------|
D|-10--12-10-12-13-12-10--12-10-12-13/15-|
A|-10--12-10-12-13-12-10--12-10-12-13/15-|
E|-10--12-10-12-13-12-10--12-10-12-13/15-|

 "As flowers hit her grave"

Outro

 3:16
 |                |             1,2,3 |   4 |
e|----------------|-------------------|-----|
B|----------------|-------------------|-----|
G|----------------|-------------------|-----|
D|-0--3-0-3h5-3-0-|-10-10-10-10h12-12-|-10\-|
A|-0--3-0-3h5-3-0-|-10-10-10-10h12-12-|-10\-|
E|-0--3-0-3h5-3-0-|-10-10-10-10h12-12-|-10\-|
____________________________________________________________________________

2. All your Lies
____________________________________________________________________________

Update: (2/10/2011)
 -Lyrics for Flower
Suggest correction
Give kudos to tab author, rate the tab!
1 2 3 4 5
comments
print report bad tab
guest
You may want to rate the tab now too:
select rating
Wanna post a correction for this tab? Suggest correction