Oops, an error
Loading. Please wait.

Worse Dreams Tab

1,905 views 1 this week
no commentswrite comment
1 2 3 4 5
excellent!
x 5
add to favorites
launch autoscroll
font size
0
reset
how to read this tab
guitar tuner
Autoscroll
slow
fast
+/-
esc
set tempo
stop
Help us to improve Ultimate-Guitar.com Take our survey!
×
Author
Brownbear93 1,007
Worse Dreams

Soundgarden

Tabbed by Brownbear93

Thanks to jjhand for his help

Tuning: EEBBBB


Intro:

G1:Repeat until fadeout

|-17-15-15-17-15-15-19-15-15-17-15-15-15-19-15-15-15-17-15-15-15-19-15-15-17-15-15--|
|-----------------------------------------------------------------------------------|
|-----------------------------------------------------------------------------------|
|-----------------------------------------------------------------------------------|
|-----------------------------------------------------------------------------------|
|-----------------------------------------------------------------------------------|

|-21-21-17-17-19-17-17-21-17-17-19-19-17-17-21-17-17-19-19-17-17-21-17-17-19-19-15--|
|-----------------------------------------------------------------------------------|
|-----------------------------------------------------------------------------------|
|-----------------------------------------------------------------------------------|
|-----------------------------------------------------------------------------------|
|-----------------------------------------------------------------------------------|
 

G2:
|------------------------------------------------------------------------------------|
|------------------------------------------------------------------------------------|
|--12b-------------------------------------------------------------------------------|
|-----------------10b--------r-b---------r-b------r~--------10b--------r-b------r~---|
|------------------------------------------------------------------------------------|
|------------------------------------------------------------------------------------|


G2:
|--(17)---------------------------------------------------------------------|
|--------(12~)--------------------(17-17-17)--------------------------------|
|---------------------------------------------------------------------------|
|---------------------------------------------------------------------------|
|---------------------------------------------------------------------------|
|---------------------------------------------------------------------------|


G3:
|------------------------------------------------------------x-21-\---------|
|-------------------------------------------x----------------x--------------|
|---9--\----------------12--\-----xx--------x-12\----xx------x--------------|
|---------------12~---------------xx-12\----x--------xx-12~-----------------|
|---------------------------------xx-----------------xx---------------------|
|---------------------------------------------------------------------------|


Verse Riff:
|----------------------------------------------------|
|----------------------------------------------------|
|----------------------------------------------------|x2
|----------------------------------------------------|
|----------------------------------------------------|
|--0--10-11-12---11---10---7--6h7\3--6/7\6-2--1------|


Chorus:
|-----------------------------------------------------0--0-0---------|
|-----------------------------------------------------0--0-0---------|
|--3---3-3-x-x-----------x-x-3---3-3-x-x--------------0--0-0---------|
|--3---3-3-x-x-5-/7-7--\-x-x-3---3-3-x-x-3-/5-5--5/7--0--0-0---------|
|--5---5-5-x-x-5-/7-7--\-x-x-5---5-5-x-x-3-/5-5--5/7--0--0-0---------|
|--5---5-5-----5-/7-7--\-----5---5-5-----3-/5-5--5/7-----------------|

|--------------------------------------------------------------------|
|--------------------------------------------------------------------|
|--3---3-3-x-x-----------x-x-3---3-3-x-x-----------------------------|
|--3---3-3-x-x-5-/7-7--\-x-x-3---3-3-x-x-3-/5-5--7--7/12-------------|
|--5---5-5-x-x-5-/7-7--\-x-x-5---5-5-x-x-3-/5-5--7--7/12-------------|
|--5---5-5-----5-/7-7--\-----5---5-5-----3-/5-5--7--7/12-------------|

G2:
|------------------|
|------------------|
|--12/15\12--9~----|
|--12/15\12--9~----|
|------------------|
|------------------|


Verse 



Fill:
|-----------------------------------|
|---7-0-7---/17--15--11--12-12~-----|
|---7-0-7---/17--15--11--12-12~-----|
|-----------------------------------|
|-----------------------------------|
|-----------------------------------|


Chorus 



Bridge:
|----------------|
|----------------|
|----(12)--14~---|
|----------------|
|----------------|
|----------------|

G1:
|---------------------------------|
|---------------------------------|
|---------------------------------|x4
|--/7-10-9-8-7--7-10-9-8-7--7-7---|
|--/7-10-9-8-7--7-10-9-8-7--7-7---|
|--/7-10-9-8-7--7-10-9-8-7--7-7---|


G2: (an attempted combination of both lead parts)
|----------------------------------------------------------15-15~---12~-----------------|
|---------------------------------/17~--17~--17~----17b--r-15-15~---12~---5br-3-5-5-3~--|
|--5p3--5p3-5p3-5p3-5p3--5p3-5p3--/17~--17~--17~----------------------------------------|
|---------------------------------------------------------------------------------------|
|---------------------------------------------------------------------------------------|
|---------------------------------------------------------------------------------------|


Chorus


G2:
|-----------------------------------------------------------------------------------------------------------|
|-3/5--7-5~-----12-10--3~---15-17---15-17-15-17-17-17-17~-----22p19\15~----17-17b-17-15----17br-15-15-17~---|
|---------------12-10--3~-----------------------------------------------------------------------------------|
|-----------------------------------------------------------------------------------------------------------|
|-----------------------------------------------------------------------------------------------------------|
|-----------------------------------------------------------------------------------------------------------|

|----------------------------------------------------------------------------|
|----20b---15-x-15-17--15-17-15-17~----------15-15-17~--15-15-17~------------|
|----------------------------------------------------------------------------|
|----------------------------------------------------------------------------|
|----------------------------------------------------------------------------|
|----------------------------------------------------------------------------|


Outro:
G1:
|-----------------------|
|-----------------------|
|-----------------------|x3
|---3--/5---7--7/12-----|
|---3--/5---7--7/12-----|
|---3--/5---7--7/12-----|


G2:
|-------------------------------------------|
|-------------------------------------------|
|-------------------------------------------|
|-------------------------------------------|
|-------------------------------------------|
|--7/8--9/12--14/15--17/19--19/21~----------|

|---------------------------------------------------------------------------------|
|----------8h10p8~---------12--15-15p12-12---8--5-5~---0-0-0-0-0--3/5--3/5-0-0-0--|
|------------------------------------------------------0-0-0-0-0-----------0-0-0--|
|--x\\---------------x-x\\--------------------------------------------------------|
|--x\\---------------x-x\\--------------------------------------------------------|
|---------------------------------------------------------------------------------|

|--------------------------------------------------0-0-0---------------------------------|
|--15-17br-17~-0-0-0--3/5--3/5-0-0-0--15-17--15-17-0-0-0---------------------------------|
|--------------0-0-0-----------0-0-0----------------------3-5-3-5br-5-5-5-5-5------------|
|----------------------------------------------------------------------------------------|
|----------------------------------------------------------------------------------------|
|----------------------------------------------------------------------------------------|



************************************

| /   slide up
| \   slide down
| h   hammer-on
| p   pull-off
| ~   vibrato
| +   harmonic
| x   Mute note
| b   Bend
| pb  Pre-bend
| br  Bend release
| pbr Pre-bend release
| brb Bend release bend
| ()  Swell
************************************
Suggest correction
What's this?
You can suggest a correction to this tab. Community and Mods will review your correction and vote to approve or reject it.
comments
print report bad tab
guest
You may want to rate the tab now too:
select rating
Please do not post tabs as comments. Select "correction" instead!