Oops, an error
Loading. Please wait.

Zero Chance Bass Tab

version 1
version 1

Whole song

  • Added note fixes and timing to original tab.

Interactive

826 views 3 this week
no commentswrite comment
1 2 3 4 5
3 more votes to show rating
add to favorites
launch autoscroll
font size
0
reset
guitar tuner
Autoscroll
slow
fast
+/-
esc
set tempo
stop
Help us to improve Ultimate-Guitar.com Take our survey!
×
Author
Difficulty
intermediate
About this tab version
Added note fixes and timing to original tab. Was this info helpful? Yes No
Soundgarden - 'Zero Chance'
From 'Down on the Upside'
Bass in Standard tuning
tabbed by jjhand


Intro - played 2x with 2 endings below

   11/8 time
G|------9/12~~------------|-----9/12~~-----------|-----9/12~~----11\9---|
D|------------------------|----------------------|---------------12\10--|
A|------------------------|----------------------|----------------------|
E|------------------------|----------------------|----------------------|


1st ending                          2nd ending
G|-9----------------------||       |--9\4--4--------------||
D|-10---------------------||       |-10\5--5--------------||
A|------------------------||       |----------------------||
E|------------------------||       |----------------------||


Acoustic Guitar plays

First Chorus - played 3x
  4/4 time
G|-7----7---7-7--7----7-7-|-5--4-----------------------|
D|-0----0---0-0--0----0-0-|-------5----5---5-5-5---5-5-|
A|------------------------|----------------------------|
E|------------------------|----------------------------|

Verse 1, played 2x:

G|-------0-7-4----4-4---4p0-|-------0-7-4------------|
D|--------------------------|------------------------|
A|---3-5--------------------|---3-5--------4---4-4---|
E|-3------------------------|-3----------------------|


G|-------0-7-4-------4-|-2----2---2-2--2--2--2p0-|
D|--------------4------|-------------------------|
A|---3-5---------------|-------------------------|
E|-3-------------------|-------------------------|


Play First Chorus Again

Lyrics: 'They say if you look hard, you'll find your way back home...'

Play Intro Again with 2nd ending only


(2:24) Play Verse Riff Again, then end on:

G|-5--4-----------------------|
D|-------5----5---5-5-5---5-5-|
A|----------------------------|
E|----------------------------|


(2:54) Bridge -

G|------0---9---------------|------0---9--------------|
D|-10-7---------------------|-10-7--------------------|
A|--------7-----------------|--------7----------------|
E|-------------7---7-7---7--|-------------7---7-7--7--|


G|------0---9---------------|-------0-7-4-------4--|-2----2---2-2--2--2--2p0-|
D|-10-7--------9------------|--------------4-------|-------------------------|
A|--------7-----------------|---3-5----------------|-------------------------|
E|----------------3----3----|-3--------------------|-------------------------|

Bridge Part 2
G|------0---9---------------|------0---9--------------|
D|-10-7---------------------|-10-7--------------------|
A|--------7-----------------|--------7----------------|
E|-------------7---7-7---7--|-------------7---7-7--7--|


G|------0---9---------------|------------------------|
D|-10-7--------9------------|------------------------|
A|--------7-----------------|------------------------|
E|----------------3----3----|-3----3---3-3--3---3-3--|

Play Chorus Again


Play Bridge part 2 Again (first 3 bars)


Ending - slows down in last 2 measures

G|-------0-7-4-------4-|-2----2---2-2--2--2--2---|-5--4----------|
D|--------------4------|-------------------------|-------5~~-----|
A|---0-5---------------|-------------------------|---------------|
E|-3-------------------|-------------------------|---------------|


key:
| /  slide up
| \  slide down
| p  pull-off
| ~  vibrato
Suggest correction
Give kudos to tab author, rate the tab!
1 2 3 4 5
comments
print report bad tab
guest
You may want to rate the tab now too:
select rating
Wanna post a correction for this tab? Suggest correction