Oops, an error
Loading. Please wait.

Zero Chance Bass Tab

version 1
version 1

Whole song

Interactive

751 views 3 this week
no commentswrite comment
1 2 3 4 5
please rate
add to favorites
launch autoscroll
font size
0
reset
guitar tuner
Tab Pro tools
  • play this tab
  • loop segment
  • change instrument
  • show fretboard
  • metronome
×
Best way to learn
"Zero Chance"
Autoscroll
slow
fast
+/-
esc
set tempo
stop
Contributor
Difficulty
intermediate
Soundgarden - 'Zero Chance'
From 'Down on the Upside'
Bass in Standard tuning
tabbed by jjhand


Intro - played 2x with 2 endings below

G|------9/12~~------------|-----9/12~~-----------|-----9/12~~----11\9---|
D|------------------------|----------------------|---------------12\10--|
A|------------------------|----------------------|----------------------|
E|------------------------|----------------------|----------------------|


1st ending                          2nd ending
|-9----------------------||       |--9\4--4--------------||
|-10---------------------||       |-10\5--5--------------||
|------------------------||       |----------------------||
|------------------------||       |----------------------||




Acoustic Guitar plays





First Chorus - played 3x

|-7----7---7-7--7----7-7-|-5--4-----------------------|
|-0----0---0-0--0----0-0-|-------5----5---5-5-5---5-5-|
|------------------------|----------------------------|
|------------------------|----------------------------|



Verse 1, played 2x:

|---------7-4----4-4---4-----|---------7-4------------|
|-------5--------------------|-------5----------------|
|---2-5----------------------|---2-5--------4---4---2-|
|-3--------------------------|-3----------------------|


|---------7-4---------|-------------------------|
|-------5-----------9-|-7----7---7-7--7--7--7\5-|
|---2-5--------9------|-------------------------|
|-3-------------------|-------------------------|




Play First Chorus Again

Lyrics: 'They say if you look hard, you'll find your way back home...'

Play Intro Again with 2nd ending only


(2:24) Play Verse Riff Again, then end on:

|-5--4-----------------------|
|-------5----5---5-5-5---5-5-|
|----------------------------|
|----------------------------|




(2:54) Bridge -

|-------0-9---------------|-------0-9--------------|
|-----0-------------------|-----0------------------|
|---7---------------------|---7--------------------|
|-8----------7---7-7---7--|-8----------7---7-7--7--|


|-------0-9----------------|---------7-4----------|------------------------|
|-----0-------9------------|-------5-----------9--|-7----7---7-7--7---7-7--|
|---7----------------------|---2-5--------9-------|------------------------|
|-8--------------3----3----|-3--------------------|------------------------|


Bridge Part 2
|-------0-9---------------|-------0-9--------------|
|-----0-------------------|-----0------------------|
|---7---------------------|---7--------------------|
|-8----------7---7-7---7--|-8----------7---7-7--7--|


|-------0-9----------------|------------------------|
|-----0-------9------------|------------------------|
|---7----------------------|------------------------|
|-8--------------3----3----|-3----3---3-3--3---3-3--|



Play Chorus Again


Play Bridge part 2 Again (first 3 bars)


Ending
|---------7-4---------|-------------------------|-5--4----------|
|-------5-----------9-|-7----7---7-7--7--7--7---|-------5~~-----|
|---2-5--------9------|-------------------------|---------------|
|-3-------------------|-------------------------|---------------|
comments
We did not receive enough feedback on this tab! Please rate:
print report bad tab
1 2 3 4 5
I want to post or [tab]
guest
You may want to rate the tab now too:
select rating
Please do not post tabs as comments. Select "correction" instead!