Oops, an error
Loading. Please wait.

Zero Chance Bass Tab

version 2
version 2

Whole song

Interactive

238 views 1 this week
no commentswrite comment
1 2 3 4 5
please rate
add to favorites
launch autoscroll
font size
0
reset
guitar tuner
Autoscroll
slow
fast
+/-
esc
set tempo
stop
Help us to improve Ultimate-Guitar.com Take our survey!
×
Song: Zero Chance
Artist: Soundgarden
Album: Down On The Upside
Tabbed by: Jase Warner (www.erikk.co.uk)

Standard Tuning (E,A,D,G)

Intro:

G|----9~--12~--------|----9~--12~--------|----9~--12~--------|-------------------|
D|*------------------|-------------------|-------------------|------------------*|
A|*------------------|-------------------|-------------------|-5--3-3~----------*|
E|-------------------|-------------------|-------------------|-------------------|

G|----9~--12~--------|----9~--12~--------|----9~--12~--------|-------------------|
D|*------------------|-------------------|-------------------|------------------*|
A|*------------------|-------------------|-------------------|-5--3-3~----------*|
E|-------------------|-------------------|-------------------|----------3-3~-----|

Pre-Verse (after guitar break):

G|-------------------|-4p5-4-------------|-------------------|-4p5-4-------------|
D|*------------------|-------5--5-5-5-55-|-------------------|-------5--5-5-5-55*|
A|*5--5--5-5--5--5-5-|-------------------|-5--5--5-5--5--5-5-|------------------*|
E|-------------------|-------------------|-------------------|-------------------|

G|-------------------|-4p5-4-------------|
D|*------------------|-------5--5-5-5-55*|
A|*5--5--5-5--5--5-5-|------------------*|
E|-------------------|-------------------|

First Verse:

G|----------7\------------|--------7\--------------|------------|--------------------|
D|*-----------------------|------------------------|------------|-------------------*|
A|*--0-2-5----2--2-2--2~--|---0-2-5----2--4--4p5--2|---0-2-5--2-|----2-0--0--00-0-00*|
E|-3----------------------|-3----------------------|-3----------|-2~-----------------|

G|----------7\------------|--------7\--------------|------------|--------------------|
D|*-----------------------|------------------------|------------|-------------------*|
A|*--0-2-5----2--2-2--2~--|---0-2-5----2--4--4p5--2|---0-2-5--2-|----2-0--0--00-0-00*|
E|-3----------------------|-3----------------------|-3----------|-2~-----------------|

First Chorus:

G|-4p5-4-------------|-------------------|-4p5-4-------------|
D|*------5--5-5-5-55-|*------------------|-------5--5-5-5-55-|
A|*------------------|*5--5--5-5--5--5-5-|-------------------|
E|-------------------|-------------------|-------------------|

G|-------------------|-4p5-4-------------|-------------------|-4p5-4-------------|
D|-------------------|-------5--5-5-5-55-|-------------------|-------5~----5-5~-*|
A|-5--5--5-5--5--5-5-|-------------------|-5--5--5-5--5--5-5-|------------------*|
E|-------------------|-------------------|-------------------|-------------------|

Break:

G|----9~--12~--------|----9~--12~--------|----9~--12~--------|-------------------|
D|*------------------|-------------------|-------------------|------------------*|
A|*------------------|-------------------|-------------------|-5--3-3~----------*|
E|-------------------|-------------------|-------------------|----------3-3~-----|

G|-------------------|-4p5-4-------------|
D|*------------------|-------5--5-5-5-55*|
A|*5--5--5-5--5--5-5-|------------------*|
E|-------------------|-------------------|

Second Verse:

G|----------7\------------|--------7\--------------|------------|--------------------|
D|*-----------------------|------------------------|------------|-------------------*|
A|*--0-2-5----2--2-2--2~--|---0-2-5----2--4--4p5--2|---0-2-5--2-|----2-0--0--00-0-00*|
E|-3----------------------|-3----------------------|-3----------|-2~-----------------|

G|----------7\------------|--------7\--------------|------------|--------------------|
D|*-----------------------|------------------------|------------|-------------------*|
A|*--0-2-5----2--2-2--2~--|---0-2-5----2--4--4p5--2|---0-2-5--2-|----2-0--0--00-0-00*|
E|-3----------------------|-3----------------------|-3----------|-2~-----------------|

Break:

G|-4p5-4-------------|
D|*------5--5-5-5-55*|
A|*-----------------*|
E|-------------------|

Bridge:

G|----------7\------------|---------7\-------------|---------7\--------|
D|*--2-0-5----------------|---2-0-5---------------*|*--2-0-5----------*|
A|*3----------2--2-2--2~--|-3---------5-2--2-2--2~*|*3---------2------*|
E|------------------------|------------------------|--------------3--3-|

G|---------7\---|--------------------|
D|*-------------|-------------------*|
A|*--0-2-5----2-|----2-0--0--00-0-00*|
E|-3------------|-2~-----------------|

G|----------7\------------|---------7\-------------|---------7\--------|
D|*--2-0-5----------------|---2-0-5---------------*|*--2-0-5----------*|
A|*3----------2--2-2--2~--|-3---------5-2--2-2--2~*|*3----------2-----*|
E|------------------------|------------------------|--------------3--3-|

G|--------------|
D|*------------*|
A|*------------*|
E|-3-3--33-3--3-|

Second Chorus:

G|-------------------|-4p5-4-------------|-------------------|-4p5-4-------------|
D|-------------------|-------5--5-5-5-55-|-------------------|-------5~----5-5~-*|
A|-5--5--5-5--5--5-5-|-------------------|-5--5--5-5--5--5-5-|------------------*|
E|-------------------|-------------------|-------------------|-------------------|

G|-------------------|-4p5-4-------------|-------------------|-4p5-4-------------|
D|-------------------|-------5--5-5-5-55-|-------------------|-------5~----5-5~-*|
A|-5--5--5-5--5--5-5-|-------------------|-5--5--5-5--5--5-5-|------------------*|
E|-------------------|-------------------|-------------------|-------------------|

Break:

G|----------7\------------|---------7\-------------|---------7\--------|
D|*--2-0-5----------------|---2-0-5---------------*|*--2-0-5----------*|
A|*3----------2--2-2--2~--|-3---------5-2--2-2--2~*|*3----------2-----*|
E|------------------------|------------------------|--------------3--3-|

G|---------7\---|--------------------|
D|*-------------|-------------------*|
A|*--0-2-5----2-|----2-0--0--00-0-00*|
E|-3------------|-2~-----------------|

Ending:

G|-4p5--4-------|
D|*--------5~--*|
A|*------------*|
E|--------------|
Suggest correction
Give kudos to tab author, rate the tab!
1 2 3 4 5
comments
print report bad tab
guest
You may want to rate the tab now too:
select rating
Please do not post tabs as comments. Select "correction" instead!