Oops, an error
Loading. Please wait.

Lost In Space tab

10 views 1 this week
no commentswrite comment
1 2 3 4 5
3 more votes to show rating
add to favorites
×
Save as Personal and add changes to this tab that will be seen only by you. Learn more ›
×
You can save this tab as Personal to edit and correct it or add notes. All changes will be seen only by you. Learn more »
launch autoscroll
font size
0
reset
how to read this tab
guitar tuner
edit
Autoscroll
slow
fast
+/-
esc
set tempo
stop
Author
Difficulty
About this tab version
This is the first song that was written by S.A.R in late 2016 by Alex Sattler and was presented to the band, then consisting of only himself, Jesse and Vince. Jesse gave up a Riff he had been working on for a while and decided it was a good fit for the lyrics, Vince wrote some fills and thus S.A.R's first song was written in under 1 hour. Was this info helpful? Yes No
Original song performed and written by S.A.R (Sounds About Right)
Lead Vocals-Alex (South Paw) Sattler
Lead Guitar-Jesse (Stone Hands) Prososki
Bass Guitarist-Ethan (Fast Ball) Rozanski
Drummer-Vincent (Vinny) Angel


[Intro]
e|------3----3--------3----3-------3----3--------3----3----|
B|-------3----3--------3----3-------3----3--------3----3---|
G|--------0----0--------0----0--------0----0--------0----0-|
D|---------------------------------------------------------|
A|-------------------3----3--------2----2-------0----0-----|
E|-----3----3----------------------------------------------|

[Verse 1]
e|------3----3--------3----3-------3----3--------3----3----|
B|-------3----3--------3----3-------3----3--------3----3---|
G|--------0----0--------0----0--------0----0--------0----0-|
D|---------------------------------------------------------|
A|-------------------3----3--------2----2-------0----0-----|
E|-----3----3----------------------------------------------|
Time is standing still tell me can you hear me do you

e|------3----3--------3----3-------3----3--------3----3----|
B|-------3----3--------3----3-------3----3--------3----3---|
G|--------0----0--------0----0--------0----0--------0----0-|
D|---------------------------------------------------------|
A|-------------------3----3--------2----2-------0----0-----|
E|-----3----3----------------------------------------------|
feel the way i feel because im tired of wandering between

e|------3----3--------3----3-------3----3-------3----------|
B|-------3----3--------3----3-------3----3------3----------|
G|--------0----0--------0----0--------0----0----0----------|
D|----------------------------------------------0----------|
A|-------------------3----3--------2----2-------2----------|
E|-----3----3-----------------------------------3----------|
the earth and all the stars, i wanna feel you closer

But you’ve never felt so far

[Chorus]
e|-3-33--3-33--3-33--2-22--- [X9] -3-| [sustain for four counts]
B|-3-33--3-33--3-33--3-33---      -3-|
G|-0-00--0-00--2-22--2-22---      -0-|
D|-0-00--2-22--2-22--0-00---      -0-|
A|-2-22--3-33--0-00---------      -2-|
E|-3-33---------------------      -3-|

And tell me can you hear my voice
That’s calling out tonight?
And tell me what is it that i
Can do to make things right
Cause all i've ever wanted
Was to see your face
But now it's just a dream…
Cuz now I'm lost in space..

[Verse 2]
e|------3----3--------3----3-------3----3--------3----3----|
B|-------3----3--------3----3-------3----3--------3----3---|
G|--------0----0--------0----0--------0----0--------0----0-|
D|---------------------------------------------------------|
A|-------------------3----3--------2----2-------0----0-----|
E|-----3----3----------------------------------------------|
I’m running out of time… If I was strong enough


e|------3----3--------3----3-------3----3--------3----3----|
B|-------3----3--------3----3-------3----3--------3----3---|
G|--------0----0--------0----0--------0----0--------0----0-|
D|---------------------------------------------------------|
A|-------------------3----3--------2----2-------0----0-----|
E|-----3----3----------------------------------------------|
Could you have been mine? Cuz I'm tired of wondering

e|------3----3--------3----3-------3----3-------3----------|
B|-------3----3--------3----3-------3----3------3----------|
G|--------0----0--------0----0--------0----0----0----------|
D|----------------------------------------------0----------|
A|-------------------3----3--------2----2-------2----------|
E|-----3----3-----------------------------------3----------|
What we could have been. And i pray that someday

I'll see you again

[Chorus]
e|-3-33--3-33--3-33--2-22--- [X9] -3-| [sustain for four counts]
B|-3-33--3-33--3-33--3-33---      -3-|
G|-0-00--0-00--2-22--2-22---      -0-|
D|-0-00--2-22--2-22--0-00---      -0-|
A|-2-22--3-33--0-00---------      -2-|
E|-3-33---------------------      -3-|

And tell me can you hear my voice
That’s calling out tonight?
And tell me what is it that i
Can do to make things right
Cause all i've ever wanted
Was to see your face
But now it's just a dream…
Cuz now I'm lost in space..

[Outro]
e|-3-33--3-33--3-33--2-22--- [X5] -3- [sustain for four counts] -3-|
B|-3-33--3-33--3-33--3-33---      -3-                           -3-|
G|-0-00--0-00--0-00--2-22---      -0-                           -0-|
D|-0-00--2-22--0-00--0-00---      -2-                           -0-|
A|-2-22--3-33--2-22---------      -3-                           -2-|
E|-3-33--------3-33---------      ---                           -3-|

I think i found a brand new way....        Cuz now i'm lost in space
A way to get back home.
Tell me can i come and say
I wish i would have known.
That you wanted me to stay… 

            
            
Suggest correction
Creating personal tab
Creating personal tab
You can edit any tab online and save it as your Personal.

You can edit, replace or remove any tab part or add personal notes – all changes will be seen only by you.

Personal tabs can be accessed anytime from any device, even offline.
Learn more »
Give kudos to tab author, rate the tab!
1 2 3 4 5
comments
print report bad tab
guest
You may want to rate the tab now too:
select rating
Wanna post a correction for this tab? Suggest correction