Oops, an error
Loading. Please wait.

Kahit Kailan Bass Tab

592 views 3 this week
no commentswrite comment
1 2 3 4 5
please rate
add to favorites
launch autoscroll
font size
0
reset
guitar tuner
Tab Pro tools
  • play this tab
  • loop segment
  • change instrument
  • show fretboard
  • metronome
×
Best way to learn
"Kahit Kailan"
Autoscroll
slow
fast
+/-
esc
set tempo
stop
Contributor
Kahit Kailan
South Border
Tabbed by: avill@yahoo.com

Intro 
G|-------------------------------------------------|
D|-------------------------------------------------|
A|-----------5~---7~------------5~----7~---5~---7~-|
E|-5~---2~-------------5~---2~---------------------|

Verse 
G|-------------------------------|------------------------------|
D|-------------------------------|------------------------------|
A|-----------------4~----5~---7~-|-----------------4~--------7~-|
E|-5~--2~--5~--2~----------------|-5~--2~--5~--2~--------7~-----|

Refrain 
G|---------------------|
D|---------------------|
A|-8~---------8~----7~-|
E|------8~-------------|

Chorus 
G|---------------------------------------------|
D|---------------------------------------------|
A|---------5---7-----------5---7------------7~-|
E|-5---2-----------5---2-----------5---2-------|

Repeat verse
Repeat refrain
Repeat chorus

Bridge (sasamahan pa kita...)    
G|--------|-----------------------|
D|--------|-----------------------|
A|-pause--|-2~--4~---5~--------7~-|
E|--------|---------------3~------|

Adlib 
G|--------------------|-------------------------------|
D|--------------------|-------------------------------|
A|-4~---------4~------|-2~----4~----------2~----------|
E|------2~---------2~-|-------------2~-------------1~-|

Chorus 
G|-------------------------------------------------------|
D|-------------------------------------------------------|
A|-----------6~---8~-------------6~----8~-------------6~-|
E|-6~---3~-------------6~---3~--------------6~---3~------|
comments
We did not receive enough feedback on this tab! Please rate:
print report bad tab
1 2 3 4 5
I want to post or [tab]
guest
You may want to rate the tab now too:
select rating
Please do not post tabs as comments. Select "correction" instead!