Oops, an error
Loading. Please wait.

Kahit Kailan Tab

version 1
version 1

Whole song

32,495 views 60 this week
no commentswrite comment
1 2 3 4 5
x 6
add to favorites
×
Save as Personal and add changes to this tab that will be seen only by you. Learn more ›
×
You can save this tab as Personal to edit and correct it or add notes. All changes will be seen only by you. Learn more »
save as personal
new!
launch autoscroll
font size
0
reset
how to read this tab
guitar tuner
Autoscroll
slow
fast
+/-
esc
set tempo
stop
[Intro]
e|---2/4---5--4---0--|----------0------|---2---0---2---0------2--0--2--0|
B|-------------------|----------0------|-2---0---2---0---0---2--0--2---|
G|-------------------|----------2------|------------------------------|
D|-------------------|-------4---------|------------------------------|
A|-------------------|----4------------|------------------------------|
E|-------------------|-0---------------|------------------------------|

[Verse 1]
(2x)
e|----------------------------|---------------------------0-----------12|
B|----------------------------|--------------------------------9h10-----|
G|-----2---1--2--2/4--2--1--2-|-----2--1--2--2/4--2--1--2---------------|
D|---2------------------------|---2-------------------------------------|
A|-0--------------------------|-0---------------------------------------|
E|----------------------------|-----------------------------------------|

         Bm7              E
e|----------2-----|----------0----|
B|----------3-----|--------0------|
G|----------2-----|------1--------|
D|-------4--------|----2----------|
A|----2-----------|--2------------|
E|--2-------------|0--------------|

[Refrain]
                          Em           Dsus                          Bm7-E
e|---------0---3--0-|----------|----------|-------0---3--0|
B|------1----1------|----------|--------3-|-----1---1-----|
G|----2-------------|----------|------2---|---2-----------|
D|--3---------------|----2-----|----0-----|-3-------------|
A|------------------|----2-----|--0-------|---------------|
E|------------------|----------|----------|---------------|

[Chorus]
e|-----------------------0|   -Dsus- |------------0---|   Repeat the 1st part
B|--0------------------0--|          |----------0-----|   of the chorus then
G|-----2--1----------1----|          |--------2-------|   Bm7-E
D|-----------------2------|          |------2---------|
A|--0--0--0-----0---------|          |----3-----------|
E|------------2-----------|          |-1--------------|

Just repeat em' until bridge

[Bridge]
 this part is now struming
    kahit na anong mangyayari....    Umuibig pa muli....
e|-----------------|                   |-----0----|
B|-----------------|                   |-----0----|
G|--7--x--7--------|                   |-----2----|
D|--7--x--7--------|                   |-----4----|
A|--7--x--7--------|                   |-----4----|
E|--0--x--0--------|                   |-----0----|

   kahit na.....        hanggang sa muli....
e|-----------------|
B|-----------------|     
G|-----------------|
D|--7--x--7--------|
A|--7--x--7--------|
E|--7--x--7--------|



************************************

| /  Slide up
| h  Hammer-on
| x  Dead note

************************************
Suggest correction
comments
print report bad tab
guest
Wanna post a correction for this tab? Suggest correction