Oops, an error
Loading. Please wait.

Kahit Kailan Tab

version 2
version 2

Whole song

79,294 views 222 this week
3 commentsread comments
1 2 3 4 5
excellent!
x 13
add to favorites
launch autoscroll
font size
0
reset
how to read this tab
guitar tuner
Tab Pro tools
  • play this tab
  • loop segment
  • change instrument
  • show fretboard
  • metronome
×
Best way to learn
"Kahit Kailan"
Autoscroll
slow
fast
+/-
esc
set tempo
stop
Contributor
Legend:(+) harmonic

(intro)

E|-4--4h5--4-0--|-------0--|---2----0--|---2-----0--|-4--4h5--4-0-|
B|--------------|-----0----|-2----0----|-2-----0----|-------------|
G|--------------|---2------|-----------|------------|-------------|
D|--------------|----------|-0---------|-0----------|-------------|
A|-0------------|----------|-----------|------------|-0-----------|
E|--------------|-2--------|-----------|------------|-------------|

E|-------0--|---2----0--|---2-----0--|---2------12-|
B|-----0----|-2----0----|-2-----0----|-2-----12----|
G|---2------|-----------|------------|-------------|
D|----------|-0---------|-0----------|-0-----------|
A|----------|-----------|------------|-------------|
E|-2--------|-----------|------------|-------------|

(verse)

E|-----------|---------|----------|---------0-5-4-12+-|
B|----------0|---------|---------0|-------------------|
G|---2-1-2---|---2-1-2-|---2-1-2--|---2-1-2-----------|
D|-----------|---------|----------|-------------------|
A|-0---------|---------|-0--------|---------4---------|
E|-----------|-2-------|----------|-2-----------------|

E|-----------|-------|-----------|---------|-----------|--------0--5-4-12+-|
B|-0-2-3-2-0-|-----0-|---------0-|---------|---------0-|-------------------|
G|-----------|-2-----|---2-1-2---|---2-1-2-|---2-1-2---|--2-1-2------------|
D|-----------|---2---|-----------|---------|-----------|-------------------|
A|-----2-----|-------|-0---------|---------|-0---------|--------4----------|
E|-----------|-0-----|-----------|-2-------|-----------|-2-----------------|

E|------------|-------------0-|
B|-0-2-3-----3|-2-0-------0---|
G|---------2--|---------1-----|
D|-------0----|-------2-------|
A|------------|---------------|
E|-----3------|-----0---------|

(bridge)

E|---------|-------0-|--------------|-3-1-0---|-----0-----|
B|-0-0---1-|-----1---|-0-1-3-1-0-1--|-------3-|-3-3-----0-|
G|-----2---|---0-----|-------------0|---------|-------2---|
D|---3-----|-2-------|--------------|-3-------|-----------|
A|---------|---------|--------------|---------|-----------|
E|---------|---------|--------------|---------|---0-------|

(chorus)

E|-4--4h5-4-0-|-------0-|-0---------------|-4-4h5-4-0-|-------0-|
B|------------|-----0---|-----0-2-0-----0-|-----------|-----0---|
G|------------|---2-----|---2-------2-2---|-----------|---2-----|
D|------------|---------|-0---------------|-----------|---------|
A|-0----------|---------|-----------------|-0---------|---------|
E|------------|-2-------|-----------------|-----------|-2-------|

E|-----2---------------|-4--4h5-4-0-|-------0-|---------|-----0-----|
B|---0---2-0-2-0-----0-|------------|-----0---|---0-2-0-|----0-0----|
G|-2-------------2-2---|------------|---2-----|-2-------|---1---1---|
D|-----0---------------|------------|---------|---------|--2-----2--|
A|---------------------|-0----------|---------|---------|-----------|
E|---------------------|------------|-2-------|---------|-0-------0-|

(coda)

E|-------|---------|-------|-----------|-------|---------|-------|---------|
B|-0-2-3-|-3-3-3-3-|-2---0-|-3-3-3-3-3-|-2---0-|-0-0---1-|-0-2-3-|-3-3-3-3-|
G|-------|---------|---2---|-----------|---2---|-----2---|-------|---------|
D|-------|---------|-------|-----------|-------|---3-----|-------|---------|
A|-------|---------|-------|-----------|-------|---------|-------|---------|
E|-----0-|---------|-------|-0---------|-------|---------|-----0-|---------|

E|-------|---------0-----|-------------|-0-------0-|-5-7-7-12+-||
B|-2---0-|-3-3-3-3---2-0-|-0-2-3-3-3-3-|---0-2-3---|-------12+-||
G|---2---|---------------|-------------|-----------|-----------||
D|-------|---------------|-------------|-----------|-0-0-------||
A|-------|---------------|-----2-------|-4---------|-----8-----||
E|-------|-0-------------|-------------|-----------|--------0--||

(Adlib part just do the intro)

(ending)

E|---2----0-|
B|-2----0---|
G|----------| **Repeat 7x**
D|-0--------|
A|----------|
E|----------|

then

E|---2----12+-||--4--||
B|-2----12+---||--5--||
G|------------||--4--||
D|-0----------||-----||
A|------------||--0--||
E|------------||-----||


Dat's it!!! 

Tamang tama to' mga Tol.. Rate nyo Pls...
For more comments.. YM nyo akoh o kya email.. jai_muzikero26@yahoo.com
KaMusta nga pla sa mga kPugz koh...(Chi,tim,van,alfred,molly,shayla)Labyu OL!
Dedicated nga pla toh sa special someone ko...
comments
print report bad tab
3 comments total.
0 reply
Brainfreezer wrote on December 31 2009, 07:31 am

perfecto!, submit ka pa tol ng tabs mo! maraming salamat

0 reply
jesther_cesa06 wrote on December 9 2010, 05:18 am

panalo ASTIG

0 reply
silverslash90 wrote on September 6 2015, 10:09 pm

iba kaya ang chords sa adlib na part

I want to post or [tab]
guest
You may want to rate the tab now too:
select rating
Please do not post tabs as comments. Select "correction" instead!