Oops, an error
Loading. Please wait.

Love Of My Life Chords

version 2
version 2

Whole song

15,990 views 73 this week
1 commentread comment
1 2 3 4 5
accurate
x 5
add to favorites
launch autoscroll
font size
0
reset
transpose
0
reset
simplify chords
display chords
guitar tuner
Tab Pro tools
  • play this tab
  • loop segment
  • change instrument
  • show fretboard
  • metronome
×
Best way to learn
"Love Of My Life"
Autoscroll
slow
fast
+/-
esc
set tempo
stop
Contributor
Difficulty
novice
Song Title: Love of My Life
Band Name: Southborder
Chords by: Keno Ventolero

Notes: CAPO ON THE FIRST FRET -- Very important

Guide to some of the chords used:

    E  F#m7  G#m7  B   B/A   A   C#m7
e|--0----0----0----0----0----0----0---|
B|--0----0----0----0----0----0----0---|
G|--1----2----4----4----4----2----4---|
D|--2----2----4----4----4----2----2---|
A|--2----x----x----2----0----0----4---|
E|--0----2----4-----------------------|


Intro: E - G#m7 - F#m7 - B
       E - G#m7 - F#m7 - F

Verse: [ You can put a short G#m7/G between G#m7 ]
       [ and F#m7 for the effect in the song :)  ]

E              G#m7                F#m7
Oh, love of my life, destined forever
          F
I will be right here by your side
E          G#m7                 F#m7
No falling tears when we're together
             F
You know the joy you bring to me

Refrain:
G#m7                  C#m
Never, there'll be no other
               CM7
We'll share as lovers
               B
Right from the heart at
                     B/A
From my mind to your soul
             G#m7       C#m7
I will give it to you girl
         
My every little thing
         CM7
That I'm more than willing
B      B/A       -- G#m
I will give to you


Chorus:
   C#m7            
Forever starts from now
          F#m7
I promise you
B             B/A            G#m7
Loving you is all that I can do
   C#sus4-C#       F#m7      G#m7
No one can take it away from me
    A-B
Nobody but you

Interlude: E - G#m7 - F#m7 - F


Verse: [Same chords as first verse]

Oh, now is the time stars will be bright
Our bodies will groove all through the night
Come take my hand then we will fly high
Come on baby here me say

[Repeat Refrain]

[Repeat Chorus]

A              G#m7              F#m7
There'll be no time for said good byes
            G#sus4 - G#
Without you here
                 C#m7
I'll killed good bye
CM7       B
Don't you go away

Adlib: [All with respect to capo on 1st]

E - G#m7 - F#m7 - F

  E ~               G#m7
e|-----------------------|
B|------------------7~~--|
G|------1--2-1--2/9------|
D|--1/2------------------|
A|-----------------------|
E|-----------------------|
 F#m7         F 
e|----------------|
B|--5h7-5---------|
G|--------4-2/9~--|
D|----------------|
A|----------------|
E|----------------|
 E ~                G#m7
e|------4--5-4--4/--14~--|
B|--4/5------------------|
G|-----------------------|
D|-----------------------|
A|-----------------------|
E|-----------------------|
  F#m7                 F
e|-------------------------|
B|--10h12-10-9-------------|
G|-------------(13)r11-9~--|
D|-------------------------|
A|-------------------------|
E|-------------------------|
                G#m7
e|----------4----------|
B|------5/7---5-5/7~---|
G|---------------------|
D|--4/6----------------|
A|---------------------|
E|---------------------|


[Repeat Refrain]

[Repeat Chorus 'til end]

2012 - Keno Ventolero
comments
print report bad tab
1 comment total.
0 reply
john.rikko.lazo wrote on March 7 2014, 03:04 am, edited at 03:06 am

TRY THIS FOR THE SOLO PART---I FEEL THAT IT SOUNDS BETTER

E ~ G#m7
e|---------------------------|
B|---------------------------------7~~--|
G|---1~~---1-1-1/2-1-1-1/7---|
D|--2------------------------|
A|---------------------------|
E|---------------------------|
F#m7 F
e|------------------|
B|--5h7-4-----------|
G|--------4-2/--9~--|
D|------------------|
A|------------------|
E|----------------|
E ~ G#m7
e|------4-4-4/5-4-4-4/--14~|
B|--4/5--------------------|
G|-------------------------|
D|-------------------------|
A|-------------------------|
E|-------------------------|
F#m7 F
e|-------------------------|
B|--10/12-10-9-------------|
G|-------------11-9~--|
D|-------------------------|
A|-------------------------|
E|-------------------------|
G#m7
e|--------4h5-4-----------|
B|----5h7-------5-5/7-7~~-|
G|------------------------|
D|------------------------|
A|------------------------|
E|------------------------|

I want to post or [tab]
guest
You may want to rate the tab now too:
select rating
Please do not post tabs as comments. Select "correction" instead!