Oops, an error
Loading. Please wait.

Darkest Sin Tab

395 views 1 this week
no commentswrite comment
1 2 3 4 5
please rate
add to favorites
launch autoscroll
font size
0
reset
how to read this tab
guitar tuner
Autoscroll
slow
fast
+/-
esc
set tempo
stop
Help us to improve Ultimate-Guitar.com Take our survey!
×
Author
Difficulty
Tuning
intermediate
A E A D F# B
Sov Strength: http://www.facebook.com/sovereignstrengthofficial

Tabbed by: Liam/punkkid1582

Tuning: Drop A   The rythms aren't perfect, figure it out yourself.

Intro (0:00-0:15)  x2

B|-------------------------------------------------------------------------|
F#|------------------------------------------------------------------------|
D|-------------------------------------------------------------------------|
A|-------------------------------------------------------------------------|
E|0-000--00000---------00---00000---1-000---0000--------00--00000----------|
A|--111--11111--0~~~---11---11111-----111---1111--0~~~--11--11111----------|
    ***  *****         **   *****     ***   ****        **  *****

Bridge (0:15-0:44)
B|-------------------------------------------------------------------------|
F#|------------------------------------------------------------------------|
D|-------------------------------------------------------------------------|
A|--(this-once)--------(second-time-this)----------------------------------|
E|1~~~~~----2~~~~~------1~~~~---2~~~~~/5~~~\1~~~---------------------------|
A|-------------------------------------------------------------------------|

Other guitar is just open palm mutes some harmonics here and there.

Verse  (0:44-0:59)   x4
B|---[3]-------------------------------------------------------------------|
F#|--[3]-------------------------------------------------------------------|
D|---[3]-------------------------------------------------------------------|
A|-------------------------------------------------------------------------|
E|------000--00000------00--00000------------------------------------------|
A|------111--11111-0~~--11--11111------------------------------------------|
        ***  *****      **  *****
Tough Guy part w/Jamie Hanks (0:59-1:33) 
NOTE: this part is not 100% correct, but it's what I figured it to be.

B|-----------------------------------------------------------(after--------|
F#|------------------------------------------------------------the---------|
D|------------------------------------------------------------fourth-------|
A|-------------------------------------------------------------time--------|
E|4-00-1---4-0-1---0000000----4-00-1---4-0-1---00------------let-ring:)-0~~|
A|4-00-1---4-0-1---0000000----4-00-1---4-0-1---00----0-0-0--------------0~~|
                   *******                     **

Circle pit part (1:33-1:51)x6 Tempo slows as you hit the 1:45 mark
B|-------------------------------------------------------------------------|
F#|------------------------------------------------------------------------|
D|-------------------------------------------------------------------------|
A|-------------------------------------------------------------------------|
E|-4-00-1-00-4-00-1-00-1-1/3-----------------------------------------------|
A|-4-00-1-00-4-00-1-00-1-1/3-----------------------------------------------|
     **   **   **   **  

Verse again
then Eeerie guitar part with this second time around:

B|-------------------------------------------------------------------------|
F#|--(bend-as-you-please)--------------------------------------------------|
D|---8~~~~----9~~~~~~-----8~~~~~--9~~~~~/12~~~~\8~~------------------------|
A|-------------------------------------------------------------------------|
E|-------------------------------------------------------------------------|
A|-------------------------------------------------------------------------|

Final Breakdown: x 4

B|-------------------------------------------------------------------------|
F#|------------------------------------------------------------------------|
D|-------------------------------------------------------------------------|
A|-------------------------------------------------------------------------|
E|0-0-00-0-00-0-00-0-00----------------------------------------------------|
A|1-1-11-1-11-1-11-1-11--3~~~------1~~~--0-0-0-----------------------------|
  * * ** * ** * ** * **                  * * *


Intro
Bridge
Verse
Jamie Hanks part
Circle pit part
Verse
Bridge
ending breakdown

I know this is not 100% correct but I tried.

For a half decent cover of this song go to youtube.com/lolcatify for extra help




************************************

| /   slide up
| \   slide down
| h   hammer-on
| p   pull-off
| ~   hold note
| []   harmonic
| *   palm mute note
| b   Bend
| pb  Pre-bend
| br  Bend release
| pbr Pre-bend release
| brb Bend release bend

************************************

Suggest correction
What's this?
You can suggest a correction to this tab. Community and Mods will review your correction and vote to approve or reject it.
comments
We did not receive enough feedback on this tab! Please rate:
print report bad tab
1 2 3 4 5
guest
You may want to rate the tab now too:
select rating
Please do not post tabs as comments. Select "correction" instead!