Oops, an error
Loading. Please wait.

Remember Now bass

76 views 6 this week
no commentswrite comment
1 2 3 4 5
3 more votes to show rating
add to favorites
×
Save as Personal and add changes to this tab that will be seen only by you. Learn more ›
×
You can save this tab as Personal to edit and correct it or add notes. All changes will be seen only by you. Learn more »
launch autoscroll
font size
0
reset
guitar tuner
edit
Autoscroll
slow
fast
+/-
esc
set tempo
stop
So me and my friend are doing covers and we just figured out the bass line
Enjoy! Feel free to improve the tab and commend if u want the solo line

[Intro]
G|---------------------------------------------------------------------------|
D|---------------------------------------------------------------------------|
A|-----------------------------------------------------33-2-5-5-5555-555-55--| x4
E|0-0-0000-000-00--8-8-8888-888-88--3-3-3333-333-33--------------------------|

[Verse]
G|---------------------------------------------------------------------------|
D|---------------------------------------------------------------------------|
A|---------------------------------------------------5-5-5555-555-55---------| x4
E|0-0-0000-000-00--8-8-8888-888-88--3-3-3333-333-33--------------------------|

G|---------------------------------------------------------------------------|
D|---------------------------------------------------------------------------|
A|----------------------------------22-2222-222-22--55-5555-555-5-5----------| х2
E|7-8-8888-888-88--2-3-3333-333-33-------------------------------------------|

[Verse]
G|---------------------------------------------------------------------------|
D|---------------------------------------------------------------------------|
A|---------------------------------------------------5-5-5555-555-55---------| x2
E|0-0-0000-000-00--8-8-8888-888-88--3-3-3333-333-33--------------------------|

G|---------------------------------------------------------------------------|
D|---------------------------------------------------------------------------|
A|----------------------------------22-2222-222-22--55-5555-555-5-5----------| х2
E|7-8-8888-888-88--2-3-3333-333-33-------------------------------------------|
So there goes the pause and you begin after the first square

[Bridge]
G|---------------------------------------------------------------------------|
D|---------------------------------------------------------------------------|
A|---------------------------------------------------------------------------|
E|7-7-7777-777-77--7-7-7777-777-77--7-7-7777-777-77--7-7-7777-777-77---------|

G|---------------------------------------------------------------------------|
D|---------------------------------------------------------------------------|
A|---------------------------------------------------------------------------|
E|3-3-3333-333-33--3-3-3333-333-33--3-3-3333-333-33--3-3-3333-333-33---------|
Andrea goes a little picky there, so if u want to, do some extra slide or hammer on's

[Verse]
G|---------------------------------------------------------------------------|
D|---------------------------------------------------------------------------|
A|---------------------------------------------------5-5-5555\7777-77--------| x4
E|7-7-7777-777-77--5-5-5555-555-55--0-0-0000-000-00--------------------------|

G|---------------------------------------------------------------------------|
D|---------------------------------------------------------------------------|
A|----------------------------------2-2-2222-222-22--5-5-555-7-777-77--------| till the end
E|7-8-8888-888-88--2-3-3333-333-33-------------------------------------------|



************************************

| \  Slide down

************************************

            
            
Suggest correction
Creating personal tab
Creating personal tab
You can edit any tab online and save it as your Personal.

You can edit, replace or remove any tab part or add personal notes – all changes will be seen only by you.

Personal tabs can be accessed anytime from any device, even offline.
Learn more »
Give kudos to tab author, rate the tab!
1 2 3 4 5
comments
print report bad tab
guest
You may want to rate the tab now too:
select rating
Wanna post a correction for this tab? Suggest correction