Oops, an error
Loading. Please wait.

Abubu Tab

version 2
version 2

Whole song

13 views 1 this week
no commentswrite comment
1 2 3 4 5
3 more votes to show rating
add to favorites
launch autoscroll
font size
0
reset
how to read this tab
guitar tuner
Autoscroll
slow
fast
+/-
esc
set tempo
stop
NOTACION

PM= palm muted (si va seguido de una línea de puntos hacerlo
hasta donde termine la línea de puntos)

------------------------------------------------------------
------------------------------------------------------------

AFINACION

Normal (standar)

------------------------------------------------------------
------------------------------------------------------------


------------------------------------------------------------
------------------------------------------------------------
------------------------------------------------------------
------2----------2------5--7--9--7--5--4--5--7--------2-----
----3---3------3---3----3--5--7--5--3--2--3--5------3---3---
--3----------3------------------------------------3---------
                        PM....................

---------------------------------
---------------------------------
---------------------------------
------2--------0-2-3-2-0----2----
----3---3-----------------3---3--
--3----------3-------------------


------------------------------------------------------------
------------------------------------------------------------


Abubu

A bu bu bu bu bu bu bu bu bu bu bu bu bu bu bu

Lobue lobue lobue lobue lobue
Suggest correction
Give kudos to tab author, rate the tab!
1 2 3 4 5
comments
print report bad tab
guest
You may want to rate the tab now too:
select rating
Wanna post a correction for this tab? Suggest correction