Oops, an error
Loading. Please wait.

Amnesia Chords

25 views 1 this week
no commentswrite comment
1 2 3 4 5
2 more votes to show rating
add to favorites
launch autoscroll
font size
0
reset
transpose
0
reset
display chords
guitar tuner
×
Best way to learn
"Amnesia"
Autoscroll
slow
fast
+/-
esc
set tempo
stop
NOTACION

p= pull off
s= slide
*= tocar muchas veces esa nota o acorde
PM= palm muted (si va seguido de una línea de puntos hacerlo
hasta donde termine la línea de puntos)

------------------------------------------------------------
------------------------------------------------------------

AFINACION

Normal (standar)

------------------------------------------------------------
------------------------------------------------------------


INTRO

1)

-------------------------
-------------------------
--3----------------------
--3----------------------
--1--4-4--5-5--4-4--5-5--
-----2-2--3-3--2-2--3-3--
     PM................

2)

------------------------------------------------------------
------------------------------------------------------------
------------------------------------------------------------
------------------------------------------------------------
-------5-------4-------5-------4-----------8--------5-------
--0-0--3--0-0--2--0-0--3--0-0--2--0-0-0-0--6---0-0--3--0-0--
  PM.     PM.     PM.     PM.     PM.....      PM.     PM.

-----------------------
-----------------------
-----------------------
-----------------5-4-3-
-4-------5-------3-2-1-
-2--0-0--3--0-0--------
    PM.     PM.

3)

------------------------------------------------------------
------------------------------------------------------------
------------------------------------------------------------
--7-----------------------------------------------------7-7-
--5--7-8--5-------5-------4-------5---------------------5-5-
-----5-6--3--0-0--3--0-0--2--0-0--3--0-0-0--0-0-0--0-0------
             PM.     PM.     PM.     PM...............

---------------------------------
---------------------------------
---------------------------------
---------------------------------
-7-8--5-------5-------4-----4--2-
-5-6--3--0-0--3--0-0--2--0--2--0-
         PM.     PM.     PM


VERSO

1) (Un día soñé, un día soñé...)

Tocar lo mismo que en Intro 2

2) (Y soñé que pisaba un lugar...)

Tocar lo mismo que en Intro 3


PRE-CHORUS (...no la dejaron procrear)

------------------------------------------------------------
------------------------------------------------------------
------------------------------------------------------------
--7----------9-----------7----------------------------------
--5--7-8--5--7--9-10--7--5--7-8--5-------5-------4-------5--
-----5-6--3-----7--8--5-----5-6--3--0-0--3--0-0--2--0-0--3--
                                    PM.     PM.     PM.

--------------------------
--------------------------
--------------------------
--------------------------
--------------------------
-0-0-0--0-0-0--0-0-0--0-0-
 PM......................


CHORUS (Un día soñé que la palabra amor...)

Tocar lo mismo que en Pre-chorus


POST-CHORUS

1) (Un día soñé que las personas humildes...)

------------------------------------------------------------
------------------------------------------------------------
------------------------------------------------------------
---------9-9--9-9-9-------------------------------10-9----10
--7------7-7--7-7-7--9--9-----------9-9------------8-7-9---8
--5--0*--------------7--7--7-7-7-7--7-7--7-7-7-7-------7----
     PM              PM.........................

--------
--------
--------
-9------
-7-9--9-
---7--7-

Y al la última vez que toques el riff toca esto al final:

------
------
------
------
-12s?-
-10s?-

2) (Un día soñé que había ricos y pobres...)

-----------------------
-----------------------
-----------------------
----------3-----5-4-3--
--2--3p2--1--2--3-2-1--
--0--1p0-----0---------

------------------------------------------------------------
------------------------------------------------------------


Amnesia 

Un día soñé, ke estaba vivo y vivo me 
sentía, notaba mi cuerpo era sólido en 
mi interior funcionaba todo, un día 
soñé ke mis miembros movía komo 
quería, ke pensaba, razonaba e incluso 
hablada, y soñé ke pisaba un lugar 
donde a una persona de nombre paz, 
hace tiempo ke mataron. 

Algunos buscan su descendenzia, pero 
ya todo, todo es en vano, porke a esa 
persona no la dejaron prokrear, no la 
dejaron prokrear. 

Un día soñé ke la palabra amor, ke la 
palabra amor en boca de todos estaba 
¿ké kerría decir? kizás se llamasen 
todos así, un día soñé ke con mis 
manos trabajaba, y deformaba todo a 
mi alrededor, mi mente trabajó, de la 
nada hizo brotar ilusión. 

-Un día soñé, ke las personas humildes 
trabajaban komo animales en 
empresas inútiles, pa ser más, ser más 
ke los demás. 

Un día soñé ke habia rikos y pobres, los 
rikos eran dueños de las empresas y los 
pobres trabajaban en ellas y entre 
ellos se odiaban a matar. 

Un día soñé ke la palabra amor, ke la 
palabra amor en boca de todos estaba 
¿ké kerría decir? kizás se llamasen 
todos así, un día soñé ke con mis 
manos trabajaba, y deformaba todo a 
mi alrededor, mi mente trabajó, de la 
nada hizo brotar ilusión. 

Un día soñé con alguien del otro sexo, 
nuestros cuerpos se fundieron y al 
sentirnos los dos soñaba ke un día 
soñé, y no me acuerdo kon ké.
Suggest correction
Give kudos to tab author, rate the tab!
1 2 3 4 5
comments
print report bad tab
guest
You may want to rate the tab now too:
select rating
Wanna post a correction for this tab? Suggest correction