Oops, an error
Loading. Please wait.

Ariel Ultra Tab

version 1
version 1

Whole song

73 views 1 this week
no commentswrite comment
1 2 3 4 5
3 more votes to show rating
add to favorites
×
Save as Personal and add changes to this tab that will be seen only by you. Learn more ›
×
You can save this tab as Personal to edit and correct it or add notes. All changes will be seen only by you. Learn more »
save as personal
new!
launch autoscroll
font size
0
reset
how to read this tab
guitar tuner
Autoscroll
slow
fast
+/-
esc
set tempo
stop
+ Tabulados de made in spain!                   +
+ [                        +
+++++++++++++++++++++++++++++++++++++++++++++++++

  Los primeros acordes con la batería son:
      G     B           E       C
hasta que sube a:
e |---------------------------------------------|
B |---------------------------------------------|
G |---------------------------------------------|
D |-9-----12-11-9-----12-11-9--5----------2-----|
A |-7-----10--9-7-----10--9-7--3----------0-----|
E |---000---------000---------------------------|
      Empieza la letra con este riff, y luego entra el del principio,
hasta el solo.

Solo:
e |---------------------------------------------------|
B |-----------------------------------8-7-----8-7-----|
G |---------------------------------------9-------9---|
D |---------------------------------------------------|
A |-/7/9/10/12-10---9----/7/9/10/12-------------------|
E |---------------------------------------------------|
donde el riff de acompañamiento al que se une luego la otra guitarra es:
      /Em Em Em   /Em Em Em  C/D   A   , (siendo Em el MI de la cuerda de A, 7º
                                  traste, como ya os imaginaréis)

Sólo falta el final, en el que el riff del principio se sube un tono: A C# F# D,

Cuando el Juan canta: "están contra todos...", y la canción termina con
F# F# F#        E E E     F# F# F# ..........LA ACCIÓN!
Suggest correction
Give kudos to tab author, rate the tab!
1 2 3 4 5
comments
print report bad tab
guest
Wanna post a correction for this tab? Suggest correction