Oops, an error
Loading. Please wait.

Ariel Ultra Tab

version 2
version 2

Whole song

50 views 1 this week
no commentswrite comment
1 2 3 4 5
3 more votes to show rating
add to favorites
launch autoscroll
font size
0
reset
how to read this tab
guitar tuner
×
Best way to learn
"Ariel Ultra"
Autoscroll
slow
fast
+/-
esc
set tempo
stop
INTRO

1)

------------------------------------------------------------
------------------------------------------------------------
--------------4---------------5-------------------------4--5
--5-5-5-5--5--4---2-2-2-2--2--5---5-5-5--5--5-5-5--5-4--4--5
--5-5-5-5--5--2---2-2-2-2--2--3---5-5-5--5--5-5-5--5-4--2--3
--3-3-3-3--3------0-0-0-0--0------3-3-3--3--3-3-3--3-2------
  PM.....         PM.....         PM...     PM...

------------------------
------------------------
---------------------5--
-2-2-2--2--2-2-2--2--5--
-2-2-2--2--2-2-2--2--3--
-0-0-0--0--0-0-0--0-----
 PM...     PM...

2)

----------------------------------------------------------
----------------------------------------------------------
---------------------------------------5-5----------------
--9-------12-11-9-------12-12---5-5-5--5-5-----------7-7--
--7-------10--9-7-------10-10---3-3-3-------7-7-7-7--7-7--
-----0-0-----------0-0----------------------5-5-5-5-------
     PM.           PM.          PM...       PM.....


VERSO

1) (Piezas de la más...)

------------------------------------------------------------
------------------------------------------------------------
------------------------------------------------------------
--9---------------12---11---9---------------12---12---------
--7---------------10----9---7---------------10---10---------
-----0-0-0-0-0-0-----0----0----0-0-0-0-0-0-----0-----8--8-8-

--------------------------------------
--------------------------------------
--------------------------------------
--------------------------------------
----------10-12------------------7-7--
-8-8-8-8---8-10--5--5-5-5-5-5-5--5-5--

2) (...y atontaos)

--------------------------------------------------
--------------------------------------------------
--------------------------------------------------
------4---5-4---------5-------4---5-4---------5---
--5---2*--3-2-5---2---3*--5---2*--3-2-5---2---3*--
--3*----------3---0*------3*----------3---0*------
      PM.......


SOLO

Guitarra 1
------------------------------------------------------------
------------------------------------------------------------
------------------------------------------------------------
------------------------------------------------------------
--5s7--7-7--7s9--9-9--9s10--10-10--10s12--12-12--12s10--10--
------------------------------------------------------------

------------------------------------------------------------
------------------------------------------------------------
------------------------------------------------------------
------------------------------------------------------------
-10-10--10--10s9--9-9-9----5s7--7-7--7s9--9-9--9s10--10-10--
------------------------------------------------------------

------------------------------------
---------------8-7----8-7-----------
-------------------9-----9----------
------------------------------------
-10s12--12-12-----------------------
------------------------------------

Guitarra 2
--------------------------------------------------
--------------------------------------------------
--------------------------------------------------
--7s9--9-9-9--7s9--9-9-9--5s7--7-7-7--------------
--5s7--7-7-7--5s7--7-7-7--3s5--5-5-5--5s7--7-7-7--
--------------------------------------3s5--5-5-5--


CHORUS

1) (Se os ha ido la mano con...)

Tocar lo mismo que la Guitarra 2 en el Solo

2) (Cerebro que os quedaba...)

----------------------------
----------------------------
----------------------------
------4--------------5-4----
--5---2--xxxxxxxxxx--3-2-5--
--3*---------------------3--


POST-CHORUS (No paréis hasta el cuello...)

---------------------------------------------------------
---------------------------------------------------------
---------------------------------------------------------
------5-------4---7-6---------7---7-9-----6---7-6--------
--2---3*--7---6*--5-4-7---4---5*--5-7--7--4*--5-4-7--4---
--0*------5*----------5---2*-----------5*---------5--2*--


FINAL (...y esa es la acción)

----------------------------------
----------------------------------
----------------------------------
-----7s6--------------------------
-----5s4-----7s4-----4--2--4-4-4--
--0-------0--5s6--0--2--0--2-2-2--
  PM      PM      PM

------------------------------------------------------------
------------------------------------------------------------


Ariel ultra

Piezas de la más absoluta degradación 
de la mente humana enferma de insatisfacción 
locos, pijos, ricas, mercenarios y atontaos 
es de lo que se componen 
los fascistas de una nación ¡energúmenos! 
tenemos que espabilarnos, están habiendo 
demasiaos, no podemos permitir que ellos 
sigan akí ¡no! 

Piezas de la más absoluta degradación 
¡eso sois! sois razistas ¡caratxorras! 
y vais disfrazados de skins 
cuando el ska es esencia del alma negra 
os gustan las cosas blancas 
pero 'ariel' no os podrá, no podrá quitaros 
las manchas de sangre. 

Se os ha ido la mano con la maquinilla 
y os habeis cortao hasta el cerebro 
que os quedaba y vamos ke no os dé vergüenza 
no pareis hasta el cuello 
están contra todos los ke lutxamos por ser 
libres, tú eres su enemigo 
si no piensas como él 
si tu raza pura no es 
sus miserables vidas y su frustración 
se convierten en odio sin razón 
contra esto solo queda una solución 
y ésta es la acción.
Suggest correction
Give kudos to tab author, rate the tab!
1 2 3 4 5
comments
print report bad tab
guest
You may want to rate the tab now too:
select rating
Wanna post a correction for this tab? Suggest correction