Oops, an error
Loading. Please wait.

Automarginao Tab

version 2
version 2

Whole song

80 views 3 this week
no commentswrite comment
1 2 3 4 5
3 more votes to show rating
add to favorites
launch autoscroll
font size
0
reset
how to read this tab
guitar tuner
×
Best way to learn
"Automarginao"
Autoscroll
slow
fast
+/-
esc
set tempo
stop
INTRO

1)

Guitarra 1
------------------
------------------
------------------
------------------
------------------
--0*--8*--5*--7*--
  PM............

Guitarra 2
-------------------------
-------------------------
-------------------------
--9-7-9--9-7-9--12-11-9--
--7-5-7--7-5-7--10--9-7--
-------------------------

2)

------------------------------------------------------------
------------------------------------------------------------
------------------------------------------------------------
---------------9-7-9-------------------9-7-9----------------
---------------7-5-7--10---------------7-5-7--7-------------
--0-0-0-0-0-0----------8--8-8-8-8-8-8---------5--5-5-5-5-5-5
  PM.........             PM.........            PM.........

----------------------------------
----------------------------------
----------------------------------
--9-7-9------------------12-11-9--
--7-5-7--9---------------10--9-7--
---------7--7-7-7-7-7-7-----------
            PM.........


VERSO

1) (Soy un automarginao...)

---------------------------
---------------------------
---------------------------
------------------12-11-9--
------------------10--9-7--
--0*--8*--5*--7*-----------
  PM............

2) (Estoy ya más que harto...)

Tocar lo mismo que en Intro 2


CHORUS

1) (Las decepciones...)

------------------------------------------------------------
------------------------------------------------------------
------------------------------------------------------------
------------------12-11-9-------------------12-11-9---------
--9---------------10--9-7--10---------------10--9-7--10-----
--7--7-7-7-7-7-7------------8--8-8-8-8-8-8------------8--8-8
     PM.........               PM.........               PM.
          xxxxxxxxxxxxxxxxxxxxxxxxxxxxxxxx
---------¡--------------------------------¡-
---------¡--------------------------------¡-
---------¡--------------------------------¡-
---------¡--------------------------------¡-
---------¡-10s12---------------------12s9-¡-
-8-8-8-8-¡--8s10--10-10-10-10-10-10--10s7-¡-
 .......          PM...............


La segunda vez que toques el riff en vez de tocar lo que po-
ne en la zona marcada con 'x' toca esto:

---------------------------
---------------------------
---------------------------
---------------------------
--12s7---------------7s14--
--10s5--5-5-5-5-5-5--5s12--
        PM.........


POST-CHORUS (...por detrás)

------------------------------------------------------------
------------------------------------------------------------
------------------------------------------------------------
------------------------------------------------------------
----------10-10-10--9-9-9--7-7--7---------------10-10-10--9-
--12*-8*------------------------5--5-5-5-5-5-5--------------
  PM....                           PM.........

---------------------------------------------
---------------------------------------------
---------------------------------------------
---------------------------------------------
-9-9--7-7--9---------------9-9-9--5-5-5-5--7-
-----------7--7-7-7-7-7-7-------------------- 
              PM.........

Y en un momento dado una segunda guitarra hace esto:

----------(19)-----------------
---------------(12)--8--10s12--
-------------------------------
-------------------------------
--19[[[------------------------
-------------------------------


FINAL (...por detrás)

--------------------
--------------------
--------------------
--9---12---9---9s?--
--7*--10*--7*--7s?--
--------------------

------------------------------------------------------------
------------------------------------------------------------


Automarginado

Soy un automarginao de toda esta mierda 
de esto que a mí me ha tocao 
soy un automarginao, prefiero estar solo 
que mal acompañao. 

Estoy ya más que harto, harto de aguantar ya 
la tontería en cualquier bar 
y esque pienso mucho, tal vez demasiado 
por eso estoy askeao. 

Las decepciones no las puedo contar 
las ilusiones se me van 
la hipocresía y la falsedad 
día a día son la realidad 
yo nunca he creido en la humanidad 
y en los pocos ke lo he hetxo me han dao 
casi siempre por detrás. 

Yo no soy perfecto, eso claro está 
y no quiero serlo jamás 
sólo os cuento esto, porke me he acordao 
de una cosa que mi madre 
me solía llamar cuando íbamos al pueblo 
y yo no quería salir de casa de mi abuela 
de casa de mi abuelika 
¡no, no sere yo, el ke aguante el baboseo!
Suggest correction
Give kudos to tab author, rate the tab!
1 2 3 4 5
comments
print report bad tab
guest
You may want to rate the tab now too:
select rating
Wanna post a correction for this tab? Suggest correction