Oops, an error
Loading. Please wait.

Cienzia Asesina Tab

68 views 1 this week
no commentswrite comment
1 2 3 4 5
3 more votes to show rating
add to favorites
launch autoscroll
font size
0
reset
how to read this tab
guitar tuner
Autoscroll
slow
fast
+/-
esc
set tempo
stop
Help us to improve Ultimate-Guitar.com Take our survey!
×
INTRO

1)

----------------------------
----------------------------
----------------------------
--7--10-7--7--12-12--10-10--
--5---8-5--5--10-10---8--8--
----------------------------

2)

------------------------------------------------------------
------------------------------------------------------------
------------------------------------------------------------
--7--7-7-7--7-7-7-7--10-10---7--7-7-7--7-7-7-7--12-12-10--7-
--5--5-5-5--5-5-5-5---8--8---5--5-5-5--5-5-5-5--10-10--8--5-
------------------------------------------------------------
     PM...                      PM...

-------------------------------------------------
-------------------------------------------------
-------------------------------------------------
-7-7-7--7-7-7-7--10-10---5--5-5-5--5-5-5-5--6-6--
-5-5-5--5-5-5-5---8--8---3--3-3-3--3-3-3-3--4-4--
-------------------------------------------------
 PM...                      PM...


VERSO

1) (¿Por qué no te rajas...)

Tocar lo mismo que en Intro 1

2) (Me gustaría verte a tí...)

Tocar lo mismo que en Intro 2


PRE-CHORUS

Guitarra 1
-------
-------
-------
-------
-------
--10*--
  PM

Guitarra 2
------
------
------
--7---
--5*--
------
  PM


CHORUS

1) (¡Sólo sois unos asesinos...)

--------------------
--------------------
--------------------
--10-10-----12--7---
---8--8--10-10--5*--
----------8---------

2) (Ellos sienten el dolor...)

------------------------------------------------------------
------------------------------------------------------------
-----2---------3----------------------2---------3-----5-----
-------2-----3-------5-------5----------2-----3---------5---
--0*------1*-----------5-------5---0*------1*------3*-------
------------------3*------3*--------------------------------
  PM      PM      PM      PM       PM      PM      PM

---------
---------
----5----
------5--
-3*------
---------
 PM

3) (¡Puta humanidad!)
                                          xxxxxxxxxxxxxxxxxx
-----------------------------------------¡------------------
-----------------------------------------¡------------------
-----------------------------------------¡------------------
--7-7-7-7-7-7----------------------------¡-10-10-10-10--9-9-
--5-5-5-5-5-5--7-7--8-8-8-8-8-8-8-8--10--¡--8--8--8--8--7-7-
---------------5-5--6-6-6-6-6-6-6-6---8*-¡------------------

xxxxxx
------
------
------
-9-9--
-7-7--
------

La segunda vez que toques el riff en vez de tocar lo que po-
ne en la zona marcada con 'x' toca esto:

-----------------
-----------------
-----------------
--10-10-----12---
---8--8--10-10---
----------8------

Y la última vez que lo toques toca esto:

------
------
------
--5---
--3*--
------

------------------------------------------------------------
------------------------------------------------------------


Cienzia asesina

¿Por ké no te rajas los huevos? deja a 
los bichos en paz ¡¿Kién te ha dado 
deretxo pa' animales torturar, 
humillar y asesinar, con salvaje 
crueldad?!, puto científico loco, me 
gustaría verte a ti igual, dentro de 
una jaula, ahogándote en tu propia 
mierda, ¡verás ke risas! te arrancaría 
la piel, te pondría electroshocks y así 
ibas a experimentar, ké sufre un 
animal. 

¡Sólo sois asesinos! no mereceis vivir, 
no a la viviseccion ¡No!, ¡no!, ¡NO! 
ellos sienten el dolor, como tú y como yo 

Teneis la mente enferma, y el corazón 
es pa' vosotros sólo un músculo ke por 
desgrazia aún late en vuestro interior. 

Y tienen morro de decir ke todo es por 
el bien de la humanidad, ¡Puta humanidad! 

Cuatrocientos millones al año mueren 
víctimas de experimentos sin razón, 
kuatrocientos millones de animales ke 
esos carnizeros matan por sus 
intereses. 

Teneis la mente enferma y el corazón 
es pa' vosotros sólo un órgano que 
por desgracia aún late en vuestro 
interior. 

Utilizan animales pa' probar nuevas 
armas pa' mirar a ver cuánto tarda la 
carne en arder o pa' ver cuanto dura 
en pie, con los sesos al aire ¡No a la 
viviseccion!!
Suggest correction
Give kudos to tab author, rate the tab!
1 2 3 4 5
comments
print report bad tab
guest
You may want to rate the tab now too:
select rating
Wanna post a correction for this tab? Suggest correction