Oops, an error
Loading. Please wait.

Cuando Nada Vale Nada Bass Tab

250 views 1 this week
no commentswrite comment
1 2 3 4 5
3 more votes to show rating
add to favorites
launch autoscroll
font size
0
reset
guitar tuner
×
Best way to learn
"Cuando Nada Vale Nada"
Autoscroll
slow
fast
+/-
esc
set tempo
stop
(Intro)
G--------------------------------------]
D--------------------------------------]
A-2-2-2-2-2-2-------5-5-5-5-------7----]
E--------------3-3----------5-5--------]


(1)  (*)=muchas veces, escuchad el CD.
G-----------------------------------------------------------]
D-----------------------------------------------------------]
A-2-2-2-2-2-2-------5-5-5-5-------7-7-----5-5-5-5--7-7-7-7--]
E--------------3-3----------5-5-------7*-3------------------]

(2)
G-----------------------------------------------------------]
D-----------------------------------------------------------]
A-2-2-2-2-2-2------5-5-5-5-------7-7-----5-5-5-5------------]
E--------------3-3----------5-5------7*-3----------3-3-5-5--]

(3)
G-----------------------------------------------------------]
D-----------------------------------------------------------]
A-2-2-2-2-2-2-----5-5-5-5-------7-7------5-5-5-5------------]
E--------------3-3----------5-5------7*-3-----------3-3-4---]

(4)
G------------------------------------------------]
D------------------------------------------------]
A-2-2-2-2-2-2------5-5-5-5-------7-7-------------]
E--------------3-3----------5-5------7*--5-5-5---]

(5)
G---------------------------------------------------------]
D---------------------------------------------------------]
A--------------5-5---------------5-5--2-2-2-2-2-2-2-2-----] X 2
E-3-3-3-3-3-3-------3-3-3-3-3-3------------------------7*-]


Final:
G-------------------------------------------------------]
D-------------------------------------------------------]
A-2-2-2-2-----------2-2-2-2-----------2-2-2-2-----------]
E----------3-3-5-5-----------3-3-5-5-----------3-3-5-5--]

G---------------------------------]
D---------------------------------]
A--------------------5-5-------2--]
E-3-3-5-5---3-3-5-5-------5-5-----]


Estructura:


-->Intro

-->1 + 2

-->(Los pequeños sitios crecen...): 3 + 1 + 1 + 2

-->(Pero a ti esas sonrisas te hacen más daño...): 3 + 4

-->(Tiradoooo,tiradoooo,tirado como un trapo...): 5

-->(...recompensa sobrevivir ¡no!): 1 + 2 + 1 + 2 + 5

-->(solo bajo: 3 + 1 + 3 + 1)

-->1 + 2 + 1 + 2 + 1 + 2

-->(...nada conmigoooo,nada conmigo!!): Final


_________________________________________________________

Esta es la que he sacado a partir de la de mades@
Alguna duda, comentario,...enviadlo a markos_punk77@
Suggest correction
Give kudos to tab author, rate the tab!
1 2 3 4 5
comments
print report bad tab
guest
You may want to rate the tab now too:
select rating
Wanna post a correction for this tab? Suggest correction