Oops, an error
Loading. Please wait.

Dulce Hogar Tab

33 views 1 this week
no commentswrite comment
1 2 3 4 5
3 more votes to show rating
add to favorites
launch autoscroll
font size
0
reset
how to read this tab
guitar tuner
×
Best way to learn
"Dulce Hogar"
Autoscroll
slow
fast
+/-
esc
set tempo
stop
NOTACION

s= slide
*= tocar muchas veces esa nota o acorde
(#)= sigue el mismo patrón para tocar el acorde
PM= palm muted (si va seguido de una línea de puntos hacerlo
hasta donde termina la línea de puntos)

------------------------------------------------------------
------------------------------------------------------------

AFINACION

Normal (Standar)

------------------------------------------------------------
------------------------------------------------------------


INTRO

1)

------------------------
------------------------
------------------------
-------3----------------
--2-2--1-3--5-5--8-7-5--
--0-0----1--3-3--6-5-3--

2)

Guitarra 1
----------------------------------------
----------------------------------------
----------------------------------------
-------9-7------------------9-7--7s9s7--
--2-2--7-5--8-7-5---2-------7-5--5s7s5--
--0-0-------6-5-3---0--0-0--------------
                       PM.

Guitarra 2
-------------------------------------------
-------------------------------------------
----9--9-7------------------9-7--7s9s7--7--
----9--9-7------------------9-7--7s9s7--7--
-------------------------------------------
-------------------------------------------

3)

------------------------------------------------------------
------------------------------------------------------------
------------------------------------------------------------
---------3--------------------------------------------------
--2--2---1--4s5--5---8-7-5---2--2-2--2--2-2--2--2-2--2--2-2-
--0--0*-----2s3--3*--6-5-3---0--0-0--0--0-0--0--0-0--0--0-0-
     PM          PM             PM.     PM.     PM.     PM.

-------------------
-------------------
-------------------
-3-----------------
-1--4-5--5---8-7-5-
----2-3--3*--6-5-3-
         PM


VERSO

1) (Pués así está establecido...)

Tocar lo mismo que en Intro 3

2) (...y le dé bien de comer)
                             xxxxxxxxxxx
----------------------------¡-----------¡--
----------------------------¡-----------¡--
----------------------------¡-----------¡--
----------------------------¡-----------¡--
--2-------8--7-7--8-8-8-8-8-¡-5---8-7-5-¡--
--0--0-0--6--5-5--6-6-6-6-6-¡-3*--6-5-3-¡--
     PM.                      PM

La segunda vez que toques este riff en vez de tocar lo que
pone en la zona marcada con 'x' toca esto:

 
-3-
-3-
-4- (x4)
-5-
-5-
-3-


PRE-CHORUS

--------
--------
--------
--------
--5--2--
--3--0--


CHORUS

----------------------------------------------
----------------------------------------------
----------------------------------------------
--5-7-------------4-4---------------4-4-4-----
--3-5--9-7-5--2---2-2--7--7-7-7--5--2-2-2--2--
-------7-5-3--0--------5--5-5-5--3---------0--


POST-CHORUS

(Cuando vienen sus amigos...
------------------------------------------------------------
------------------------------------------------------------
------------------------------------------------------------
--------------------------------------------------------9s4-
--8s7--4s5--5---7-7--2--2----8s7--4s5--5---7-7--7--7----7s2-
--6s5--2s3--3*--5-5--0--0*---6s5--2s3--3*--5-5--5--5*-------
            PM          PM             PM          PM

...tu pintada y maquillada...
------------------------------------------------------------
------------------------------------------------------------
------------------------------------------------------------
-5--5---5------9--5--5---7-7--------------------------------
-3--3*--3--7---7--3--3*--5-5---2-2--2--2--2-2--2--2-2--8s7--
-----------5*------------------0-0--0--0--0-0--0--0-0--6s5--
    PM     PM        PM        PM.     PM      PM
                              (######################)

                                 ...quítate ese traje ya)
---------------------------------------------------------
---------------------------------------------------------
---------------------------------------------------------
-----------------------------------------4-4-------------
-4s5--5--7-7-7--2--8s7--4s5--5---7-7--2--2-2--7--5-5--2--
-2s3--3--5-5-5--0--6s5--2s3--3---5-5--0-------5--3-3--0--
      #         #            #

------------------------------------------------------------
------------------------------------------------------------


Dulce hogar

Pues así está establecido, si es ke tú 
eres mujer, búscate un buen mozo y después 
agárrate muy bien a él 
tu futuro está asegurao, y de su curro a vivir 
y él ahora ya tiene quien le limpie el culo 
y le dé bien de comer. 

Júrale amor eterno, y cásate con él 
pon el coño todas las notxes 
y ya has cumplido tu papel 
ya formais ese dulce hogar 
pilar de esta sociedad 
al principio mutxa alegría 
luego solo rutina y aguantar ¡y aguantar! 

Después niños traer, a este mundo 
que alegría nos traerán, será estupendo y tal 
el marido ya está en paro 
y ya son seis niños que alimentar 
¡ké coño va a pasar! ¿por ké cojones no 
te hiciste la vasectomia? 

Cuando vienen sus amigos 
los niños en el sofá, no mueven una pestaña 
por lo que pueda pasar 
tu pintada y makillada a tragar, tragar, tragar 
repartiendo mil sonrisas 
de un hipócrita total. 

Los amigos se han martxao, los niños a ostias 
están, ¡tu vieja! pa la cocina, kítate ese traje 
recoje toda la mierda y ponte a fregar. 

El viejo se ha largao a emborratxarse a el bar 
nadie le espera, pues cuando vuelva... 
seguro se enterarán, seguro ke se enteran.
Suggest correction
Give kudos to tab author, rate the tab!
1 2 3 4 5
comments
print report bad tab
guest
You may want to rate the tab now too:
select rating
Wanna post a correction for this tab? Suggest correction