Oops, an error
Loading. Please wait.

Estado Enfermo Tab

32 views 1 this week
no commentswrite comment
1 2 3 4 5
3 more votes to show rating
add to favorites
launch autoscroll
font size
0
reset
how to read this tab
guitar tuner
Autoscroll
slow
fast
+/-
esc
set tempo
stop
Help us to improve Ultimate-Guitar.com Take our survey!
×
INTRO
                                         xxxxxxxxxxxxx
----------------------------------------¡-------------¡--
----------------------------------------¡-------------¡--
------------9------------9------------9-¡-12-12-12-12-¡--
------------9------------9------------9-¡-12-12-12-12-¡--
------------7------------7------------7-¡-10-10-10-10-¡--
--0-0-0-0-0----0-0-0-0-0----0-0-0-0-0---¡-------------¡--

La segunda vez que toques el riff en vez de tocar lo que po-
ne en la parte marcada con 'x' toca esto:

-----------
-----------
--7-7---7--
--7-7-7-7--
--5-5-7-5--
------5----


VERSO

1) (Abusos, presiones,...)

Tocar lo mismo que en la Intro

2) (Desaparecidos...)
                                             xxxxxxxxxxxxxxx
--------------------------------------------¡---------------
--------------------------------------------¡---------------
--------------------------------------------¡---------------
--------------------------------------------¡---------------
--2--2-2-2-2--2-2--2-2-2-2--2-2--2-2-2-2--2-¡-4-5-5-5--4-5-5
--0--0-0-0-0--0-0--0-0-0-0--0-0--0-0-0-0--0-¡-2-3-3-3--2-3-3
  PM........................................................
xxx
---¡-
---¡-
---¡-
---¡-
-5-¡-
-3-¡-
..

La segunda vez que toques el riff en vez de tocar lo que po-
ne en la zona marcada con 'x' toca esto:

-----------
-----------
--7-7---7--
--7-7-7-7--
--5-5-7-5--
------5----


CHORUS (El terror...)

------------------------------------------------------------
------------------------------------------------------------
----------------9-9-9-9--7s9-9-9----------------------------
--9-9-9-9--8-7--9-9-9-9--7s9-9-9--7-7-7-7-----------7-8--9-9
--9-9-9-9--8-7--7-7-7-7--5s7-7-7--7-7-7-7--(7)-(7)--7-8--9-9
--7-7-7-7--6-5--------------------5-5-5-5-----------5-6--7-7

-----------------------
-----------------------
-----------------------
-9-9-------------------
-9-9-------------------
-7-7--(7)-(7)-(7)-(7)--

------------------------------------------------------------
------------------------------------------------------------


Estado enfermo

Abusos, presiones, torturas y brutalidad.
Las cicatrices recuerdan el pasado
tiro en el cráneo fin del interrogatorio.
La pesadilla para ellos se ha acabado.

Desaparecidos,desaparecidos
intentan ocultar algo que está en el viento
que no pueden parar
intentan ocultar algo que está en el viento.

Los corazones lloran, no han parado de llorar
lloran la muerte mientras que las mentiras callan la razón
y las lásgrimas inundan de odio todo lo que hay a su alrededor.

Sangre del pueblo que no dejan ser libre
corre por las alcantarillas del estado
envenenado por las ansias de poder
podrido, corrupto y degenerado.

El terror, este terror lleva corbata y besa al Papa.
El terror, este terror, terror democrático
sangre del pueblo que no dejan ser libre
corre por las alcantarillas del estado enfermo.
¡Enfermo! ¡Muerte!
Suggest correction
Give kudos to tab author, rate the tab!
1 2 3 4 5
comments
print report bad tab
guest
You may want to rate the tab now too:
select rating
Wanna post a correction for this tab? Suggest correction