Oops, an error
Loading. Please wait.

Jaulas De Tierras Tab

56 views 1 this week
no commentswrite comment
1 2 3 4 5
3 more votes to show rating
add to favorites
launch autoscroll
font size
0
reset
how to read this tab
guitar tuner
×
Best way to learn
"Jaulas De Tierras"
Autoscroll
slow
fast
+/-
esc
set tempo
stop
INTRO

Guitarra 1
------------------------------------------------------------
------------------------------------------------------------
--4-4-4-4--7-7-7-7-7--4-2-2-2--4-2-2-2--2-3-----------------
--2-2-2-2--5-5-5-5-5--2-0-0-0--2-0-0-0--0-1-----------------
------------------------------------------------------------
------------------------------------------------------------

Guitarra 2
------------------------------------------------------------
------------------------------------------------------------
------------------------------------------------------------
--9--9-9--9-9-------------------4--4-4--4--4--4-4-4-4---7-8-
--7--7-7--7-7---5--5-5-5--5-5---2--2-2--2--2--2-2-2-2---5-6-
----------------3--3-3-3--3-3-------------------------------
     PM.                           PM.     PM


VERSO

1) (Hace tiempo que yo...)

--------------------
--------------------
--------------------
--9---7-8--9---7-8--
--7*--5-6--7*--5-6--
--------------------
  PM       PM

2) (Este mundo...)

Tocar lo mismo que la guitarra 2 en la Intro


PRE-CHORUS

1)

Guitarra 1
--------------------------------------------
--------------------------------------------
--4-4--7-7------------4-4-------7-7---------
--2-2--5-5--4-4--7-7--2-2--4-4--5-5--7-7-7--
------------2-2--5-5-------2-2-------5-5-5--
--------------------------------------------

Guitarra 2
----------------------------------------------
----------------------------------------------
----------------------------------------------
--9-9-----------------9-9---------------------
--7-7-----------------7-7--9-9------12-12-12--
---------------------------7-7------10-10-10--

2)

Guitarra 1: Toca lo mismo que guitarra 1 en Pre-chorus 1

Guitarra 2
--------------------------------------------------
--------------------------------------------------
--------------------------------------------------
--9-9--12-12--------------9-9--4-4--12-12--7-7-7--
--7-7--10-10--9-9--12-12--7-7--2-2--10-10--5-5-5--
--------------7-7--10-10--------------------------

3) (Pero hay unas cuantas cosas...)

------------------------------------------------------
------------------------------------------------------
----------------------------------------------7-------
--9--9---9-9----------------------9--9---9-9--5*--7---
--7--7*--7-7--5-5--5-5--9-9--9-9--7--7*--7-7------5*--
--------------3-3--3-3--7-7--7-7----------------------
     PM         PM        PM         PM

4)

Toca lo mismo que la guitarra 2 en el Pre-chorus 2


CHORUS

1) (¡Mecagüen to!)

-------------------------------------------------------
-------------------------------------------------------
--4-4---4---4--4---2----4-4---4---4--4-----------------
--2-2-0-2-0-2--2*--0*---2-2-0-2-0-2--2*--5-5--7-7------
-----------------------------------------3-3--5-5--7---
---------------------------------------------------5*--

2) (Mecago en la ostia...)

----------------------------------
----------------------------------
----------------------------------
--4-4--4-4-4------5-5--5-5-5------
--2-2--2-2-2--2---3-3--3-3-3--7---
--------------0*--------------5*--

3) (Malditos todos sea-a-ais)

----------
----------
----------
--5-5--7--
--3-3--5--
----------

------------------------------------------------------------
------------------------------------------------------------


Jaulas de tierra 

Hace tiempo que yo pienso, si estaré equivocao 
en mi forma de creer, como debe funcionar 
este mundo ke nos hace, que nos hace cada vez 
ser menos humanos y odiarnos, siempre odiar 
siempre odiándonos, siempre estar odiándonos 

Pero hay unas cuantas cosas de las ke seguro estoy 
pero hay unas cuantas de las que seguro estoy 
por muy indeciso que esté, nadie me convence 
de ke un estado sea algo en lo que hay que creer. 

¡Eh, tú! tú no te has preguntao jamás 
por qué este mundo está dividido en jaulas 
y si en la que te ha tokao no hay alpiste 
eres pasto de los buitres 
y de ti no quedará, mas ke unos huesos para txupar 
¡me caguen la ostia, kaguen dios, 
y hasta en la madre que los parió! 

Porke lo suyo sería que todos fuéramos libres 
que cada persona podría elegir 
un sitio para vivir y donde ser felices 
o infelices, pero poder elegir. 

Esto tal vez pueda ser una utopía, lo sé 
pues se lo han montao muy bien pa sus negocios 
hacer, y eske los putos estados son el marco ideal 
para ke el capitalismo, siempre pueda funcionar 
porque a ellos les conviene, ke haya un 'tercer 
mundo', que sufra y al que explotar 
y no dejarles nunca crecer, prosperar 
tenerlos siempre hundidos en la puta miseria. 

Malditos seais todos los que permitís 
que millones de humanos se tengan ke pudrir 
los ke convierten paises en auténticos campos de 
exterminio, los que han partido el mundo 
en mil pedazos, y a millones de pueblos han kitado 
su propia cultura, su propia identidad 
malditos seais todos ¡malditos todos seais
Suggest correction
Give kudos to tab author, rate the tab!
1 2 3 4 5
comments
print report bad tab
guest
You may want to rate the tab now too:
select rating
Wanna post a correction for this tab? Suggest correction