Oops, an error
Loading. Please wait.

Kontra La Agresion Kastracion Tab

44 views 1 this week
no commentswrite comment
1 2 3 4 5
3 more votes to show rating
add to favorites
launch autoscroll
font size
0
reset
how to read this tab
guitar tuner
×
Best way to learn
"Kontra La Agresion Kastracion"
Autoscroll
slow
fast
+/-
esc
set tempo
stop
INTRO

1)

Arpegiar en B5 (244xxx); tocar este riff dos veces
-------------------------------------
-------------------------------------
-----------0----------------0--------
------4------4--------4-------4------
----4---4------4----4---4-------4----
--2--------------2--------2-------2--

2)

Arpegiar en E5 (022xxx); tocar este riff una vez
-------------------------------------
-------------------------------------
-----------0----------------0--------
------2------2--------2-------2------
----2---2------2----2---2-------2----
--0--------------0--------0-------0--

3) Volver a tocar Intro 1 hasta que empiece el verso


VERSO

1) (Ya han dado las cinco...)

------------------------------------------------------------
------------------------------------------------------------
-----------------4-------------4---------------------4-4-4--
-----------------2-------------2---------------------2-2-2--
------------------------------------------------------------
--2*--0-0-0-0-0-----0-0-0-0-0-----0-0-0-0-0-0-0-0-0---------

2) (...hacen despertarse al animal)

--------------------------------------
--------------------------------------
--------------------------------------
------5-5------5-5------3-3------3-3--
------3-3------3-3------1-1------1-1--
--2*-------2*-------0*-------0*-------


CHORUS

1) (Tus nervios están a tope...)

-------------------------------
-------------------------------
-------------------------------
--4-4-4--7-7-7--------------5--
--2-2-2--5-5-5--4-4-4--5-5--3--
----------------2-2-2--3-3-----

2) (Ni tiempo pa gritar...)

Toca lo mismo que en Chorus 1 más rápido, más veces cada
acorde y con ligeras variaciones


FINAL

-----------------------
-----------------------
-----------------------
-----------------------
--8-8-----8-8-----8s?--
--6-6--0--6-6--0--6s?--

------------------------------------------------------------
------------------------------------------------------------


Kontra la agresión, kastración 

Ya han dado las cinco, te martxas a 
casa, hay ganas de sobar, estás askeada 
mañana será otro día más, y la noche 
otra noche más, sola por oscuras, por 
oscuras calles, las sombras deambulan 
entre los rincones y las curvas de, de tu 
figura hacen desertarse al animal y tú 
tienes un presentimiento kieres ke no 
sea verdad. 

Tus nervios están a tope, te impiden casi 
respirar, estás llegando a tu casa, 
piensas nada va a pasar y del bolsillo te 
sakas las llaves de tu tierno hogar, de 
pronto de frente... 

Ni tiempo pa gritar, salvajemente te violó 
y tú solo pudiste llorar, luego vomitar 
al recordar su cara, asko en tu interior, 
gritas ¡Venganza! 

Ninguna condena hay ke pueda borrar la 
huella de ese animal ke infectó tu carne 
la carcel no es ¡no es la solución! hay ke 
escarmentar al mamón, ninguna condena 
podrá devolver toda la dignidad ke ese 
perro te robó, la carcel no es ¡no es la 
solución! hay ke capar al cerdo agresor 
no te kedes de, de brazos cruzaos, 
contra la agresión kastrazión, 
¡¡kastrazión!!
Suggest correction
Give kudos to tab author, rate the tab!
1 2 3 4 5
comments
print report bad tab
guest
You may want to rate the tab now too:
select rating
Wanna post a correction for this tab? Suggest correction