Oops, an error
Loading. Please wait.

Mili Mierda Tab

16 views 1 this week
no commentswrite comment
1 2 3 4 5
3 more votes to show rating
add to favorites
launch autoscroll
font size
0
reset
how to read this tab
guitar tuner
Autoscroll
slow
fast
+/-
esc
set tempo
stop
INTRO

Guitarra 1
----------------------------------
----------------------------------
-------2-------3------------------
--2-2--2--3-3--3-------3-------5--
--0-0-----1-1-----3-3--3--5-5--5--
------------------1-1-----3-3-----
  PM.     PM.     PM.     PM.

Guitarra 2
------------------
------------------
------------------
------------------
--5-5-5-5--7-7-7--
--3-3-3-3--5-5-5--
  PM.....


VERSO (Hoy has recibido una carta...)

----------------------
----------------------
----------------------
--2-2--3-3------------
--0-0--1-1--3-3--5-5--
------------1-1--3-3--

En un momento dado una segunda guitarra hace esto:

----------
----------
----------
----------
--5-5--7--
--3-3--5--

Y en otro momento dado la guitarra principal hace esto:

----------------
----------------
----------------
--2--3----------
--0--1--3--5-5--
--------1--3-3--


CHORUS

1)

Guitarra 1 (con un efecto de pedal llamado 'delay')
----------------------------
----------------------------
----------------------------
--10s9--9s8--10s9--9s8--12--
---8s7--7s6---8s7--7s6--10--
----------------------------

Guitarra 2
         (x4)       (x4)
------------¡-----------
------------¡-----------
------------¡-----------
--10s9------¡-9s8-------
---8s7------¡-7s6-------
--------0-0-¡------0-0--
        PM.        PM.

2)

Tocar lo mismo que la guitarra 2 en Verso 1

3)

             (x4)           (x4)
----------------¡---------------
----------------¡---------------
----------------¡---------------
--10s9----------¡-9s8-----------
---8s7----------¡-7s6-----------
--------0-0-0-0-¡------0-0-0-0--
                

FINAL

-----------------------
-----------------------
-----------------------
--2--2-3--3------------
--0--0-1--1-3--3--5-5--
------------1--1--3-3--

------------------------------------------------------------
------------------------------------------------------------


Mili Mierda

Hoy! has recibido una carta 
que no te ha hecho ni puta gracia 
ke te la hayan mandao 
era la carta, ke te manda el estado 
para que cumplas como esclavo 
su servicio militar. 
Te tendrás ke rebajar ante unas 
txapas, que les dan a esos putos 
babas, por haber hetxo el jolar 
querrán ke sientas orgullo por 
un trapo, por la historia de ese 
país, en ke te han ido a parir 

¡INSUMISIÓN AL EJERCITO Y A LA NAZIÓN!! 
¿Pero quién? kién se creen que 
son esos, tú vida es tuya y no 
de ellos, no te dejes engañar 
yo no pienso perder todo un año 
nunca seré un peldaño 
de su estado militar. 
¡mili MIERDA!
Suggest correction
Give kudos to tab author, rate the tab!
1 2 3 4 5
comments
print report bad tab
guest
Wanna post a correction for this tab? Suggest correction