Oops, an error
Loading. Please wait.

Nada Que Explicar Tab

23 views 1 this week
no commentswrite comment
1 2 3 4 5
3 more votes to show rating
add to favorites
launch autoscroll
font size
0
reset
how to read this tab
guitar tuner
Autoscroll
slow
fast
+/-
esc
set tempo
stop
Help us to improve Ultimate-Guitar.com Take our survey!
×
INTRO

1)

Guitarra 1: B B  B A (golpea con la pua las cuerdas hacia
                       Abajo)

Guitarra 2:
------------
------------
--4-4--4----
--4-4--4-7--
--2-2--2-7--
---------5--


2)

Bb B  Bb Bb  Bb B  Bb AA  Bb B  Bb Bb  DD D  EE E

(toca estos acordes golpeando con la pua hacia arriba las
cuerdas y luego parando el sonido con ambas manos, como 
hacen los guitarristas de ska)


VERSO

1)

Toca los mismos acordes que en la Intro 2

2) (No pienses más ...)

-----------------------------------------------------------
-----------------------------------------------------------
--4-4-4-----------4-4-4-----------4-4-4-----------7-7-7-7--
--4-4-4--5-5-5-5--4-4-4--5-5-5-5--4-4-4--5-5-5-5--7-7-7-7--
--2-2-2--5-5-5-5--2-2-2--5-5-5-5--2-2-2--5-5-5-5--5-5-5-5--
---------3-3-3-3---------3-3-3-3---------3-3-3-3-----------

-------------
-------------
--9-9-9-9-9--
--9-9-9-9-9--
--7-7-7-7-7--
-------------

En un momento dado del verso una segunda guitarra hace esto:

-------
-------
--7s?--
--7s?--
--5s?--
-------


CHORUS

1) (Solo son basura ...)

------------------
------------------
--4---7-------9---
--4---7---7---9---
--2*--5*--7---7*--
----------5*------

2)

Igual que Verso 2

------------------------------------------------------------
------------------------------------------------------------


Nada que explicar

Amiga, no me siento bien,
mira lo que he tenido que hacer,
me costó tomar la decisión,
y creo que he hecho lo mejor.
No estaba lista, no era el momento,
yo no lo deseaba tener,
no quiero traer un niño al mundo
y hacerle sufrir mis errores a él.

¡No pienses más!
Tú no tienes nada que explicar,
porque yo sé muy bien que dentro
de tu piel estás tu sola, y nadie más,
tú sola sabes lo que estás sufriendo en tu interior,
tú debes ser la única dueña de tu porvenir.

Y la conciencia tenla tranquila,
no te avergüenzes, no mires atrás,
no te preocupes por esa gente
que pretende que creamos que hemos hecho algo mal.
Solo son basura, y no te tienes que preocupar
por su mala baba, y su pedante hipocresia
¡No pienses más!

Si tú eres consciente de tú realidad,
si tú tienes claro hacia dónde vas,
no lo pienses más, sigue hacia delante hasta el final.
Ellos son basura y no te tienes que preocupar
de su mala baba y su pedante hipocresia,
ellos siguen los dictados que les da un viejo demente, inconsciente,
que no duda en enviar a millones de personas a una muerte agónica,
mentalidades retrogradas que no ven la realidad.
Suggest correction
Give kudos to tab author, rate the tab!
1 2 3 4 5
comments
print report bad tab
guest
You may want to rate the tab now too:
select rating
Wanna post a correction for this tab? Suggest correction