Oops, an error
Loading. Please wait.

No Kiero Participar Tab

version 2
version 2

Whole song

50 views 1 this week
no commentswrite comment
1 2 3 4 5
3 more votes to show rating
add to favorites
launch autoscroll
font size
0
reset
how to read this tab
guitar tuner
Autoscroll
slow
fast
+/-
esc
set tempo
stop
Help us to improve Ultimate-Guitar.com Take our survey!
×
INTRO

1)

-----------------------------------------------------------
-----------------------------------------------------------
-----------------------------------------------------------
-----------------------------------------------------------
-----------------------------3h5---------------------------
--0*--3p0-0-5p0-0-3h5p0--0*-------0*--3p0-0-5p0-0-3h5--0*--
  PM.......................       PM.....................

2)

------------------------------------------------------------
------------------------------------------------------------
------------------------------3-5---------------------------
--0-----------0---------------3-5-5--0-----------0----------
--0-----------0---------------1-3-5--0-----------0----------
--0--0-0-0-0--0--0-0-0-0-0-0------5--0--0-0-0-0--0--0-0-0-0-
     PM.....     PM.........            PM.....     PM.....

-----------------------
-----------------------
-----------------------
------3--0-0--5-3--5-3-
------3--0-0--5-3--5-3-
-0-0--3--0-0--5-3--5-3-
 ...     PM.


VERSO

1) (Siempre estamos...)

Tocar lo mismo que en Intro 1

2) (Que ostias...)

Tocar lo mismo que en Intro 2


CHORUS (Nuestro querido...)

--------------------------
--------------------------
-----3--5-5-------3-------
--0--3--5-5--5-5--3--3-3--
--0--1--3-3--5-5--1--3-3--
--0----------5-5-----3-3--

(La primera vez que toques el riff utiliza si puedes un efec-
to de pedalera llamado 'flanger' a niveles mínimos)


FINAL

----------------------
----------------------
----------------------
----------------------
------3-3-3-3-3--3h5--
--0*--3-3-3-3-3--3h5--
  PM................

------------------------------------------------------------
------------------------------------------------------------


No kiero participar 

Siempre estamos en dios cagándonos
¿y qué ostias hacéis mi cuadrilla akí?
si nunca creímos en lacristiana hipocresía
¿qué ostias?

Estos putos ritos no son muy bonitos
echar vinagre en la herida jode bastante
el cura este calvo
habla de mí como si de siempre el sinvergüenza me conociera.

Nuestro querido y joven amigo,
que descanse en paz
era más bueno que el pan
¡cállate cerdo!, ¡cerdo!

Esta farsa es
negocio pa enriquecer
a las mafias funerarias
carroñeras
mis viejos se han quedao más tranquilos
pero ahora lo que les tiemblan son sus bolsillos.

Paso en estereo de comulgar
no kiero participar
no tiene nadie por qué sufrir más por mi muerte
viniendo a este lugar
que yo siempre he odiao
que baja la moral
no necesito embalajes de tantas mil
mi cuerpo muerto que se pudra sin más
que se lo trague el mar o vaya al fuego
un par de tragos por mí y ya nos veremos
un par de tragos más ¡y menos ostias!
Suggest correction
Give kudos to tab author, rate the tab!
1 2 3 4 5
comments
print report bad tab
guest
You may want to rate the tab now too:
select rating
Wanna post a correction for this tab? Suggest correction