Oops, an error
Loading. Please wait.

Nos Vimos En Berlin Bass

version 1
version 1

Whole song

Interactive

51 views 1 this week
no commentswrite comment
1 2 3 4 5
3 more votes to show rating
add to favorites
launch autoscroll
font size
0
reset
guitar tuner
backing track
0:00
0:00
×
Best way to learn
"Nos Vimos En Berlin"
Autoscroll
slow
fast
+/-
esc
set tempo
stop
NOTA:

Espero y te ayude en algo esta tab.
Si necesitas una tab en especial, escríbeme o visita...

*******************************************
*  *
*******************************************

- Revisa la afinación
- Pon atención a las instrucciones que están al final
- CALIFICA SOLO SI LEÍSTE "EL MANUAL"-

             E  H        Q    E     E  H        Q    E
G||-------|----------------------|-----------------------|
D||-------|----------------------|-----------------------|
A||-------|--7----------------6--|--7----------------6S--|
E||-------|----------------------|-----------------------|


  E  H        Q    E     E.  E.  E  E.  E.  E     H.           E  E
----------------------|------------------------|---------------------|
----------------------|------------------------|---------------------|
--7-------------------|--3---3---3--6---6---6--|--7------------L--6--|
----------------------|------------------------|---------------------|


  H.           E  E      W                   E.  E.  E  E.  E.  E
----------------------|-------------------|------------------------|
----------------------|-------------------|------------------------|
--7------------L--6S--|--7----------------|--3---3---3--6---6---6--|
----------------------|-------------------|------------------------|


  E  S S S S S S S S S S S S E     E  S S S S S S S S S S S S E
--------------------------------|---------------------------------|
--------------------------------|---------------------------------|
--7--7-7-7-7-7-7-7-7-7-7-7-7-6--|--7--7-7-7-7-7-7-7-7-7-7-7-7-6S--|
--------------------------------|---------------------------------|


  E  S S S S S S S S S S S S S S    E.  E.  E  E.  E.  E
---------------------------------|------------------------|
---------------------------------|------------------------|
--7--7-7-7-7-7-7-7-7-7-7-7-7-7-7-|--3---3---3--6---6---6--|
---------------------------------|------------------------|


    E  S S S S S S S S S S S S E     E  S S S S S S S S S S S S E
|---------------------------------|---------------------------------|
|*--------------------------------|---------------------------------|
|*--7--------------------------6--|--7--------------------------6S--|
|------0-0-0-0-0-0-0-0-0-0-0-0----|-----0-0-0-0-0-0-0-0-0-0-0-0-----|


  E  S S S S S S S S S S S S S S    E.  E.  E  E.  E.  E
---------------------------------|-------------------------||
---------------------------------|------------------------*||
--7------------------------------|--3---3---3--6---6---6--*||
-----0-0-0-0-0-0-0-0-0-0-0-0-0-0-|-------------------------||


  E.  E.  E  E.  E.  E       E.  E.  E  E.  E.  E
-------------------------||-------------------------||
------------------------*||------------------------*||
--3---3---3--6---6---6--*||--3---3---3--6---6---6--*||
-------------------------||-------------------------||


  E.  E.  E  E.  E.  E     E  S S S S S S S S S S S S E
------------------------|--------------------------------|
------------------------|--------------------------------|
--3---3---3--6---6---6--|--7--------------------------6--|
------------------------|-----0-0-0-0-0-0-0-0-0-0-0-0----|


  E  S S S S S S S S S S S S E      E  S S S S S S S S S S S S S S
---------------------------------|---------------------------------|
---------------------------------|---------------------------------|
--7--------------------------8S--|--7------------------------------|
-----0-0-0-0-0-0-0-0-0-0-0-0-----|-----0-0-0-0-0-0-0-0-0-0-0-0-0-0-|


  E.  E.  E  E.  E.  E     E  S S S S S S S S S S S S E
------------------------|--------------------------------|
------------------------|--------------------------------|
--3---3---3--6---6---6--|--7--------------------------8--|
------------------------|-----0-0-0-0-0-0-0-0-0-0-0-0----|


  E  S S S S S S S S S S S S E      E  S S S S S S S S S S S S S S
---------------------------------|---------------------------------|
---------------------------------|---------------------------------|
--7--------------------------6S--|--7------------------------------|
-----0-0-0-0-0-0-0-0-0-0-0-0-----|-----0-0-0-0-0-0-0-0-0-0-0-0-0-0-|


  E.  E.  E  E.  E.  E       E  S S S S S S S S S S S S E
------------------------||---------------------------------|
------------------------||*--------------------------------|
--3---3---3--6---6---6--||*--7--------------------------6--|
------------------------||------0-0-0-0-0-0-0-0-0-0-0-0----|


  E  S S S S S S S S S S S S E      E  S S S S S S S S S S S S S S
---------------------------------|---------------------------------|
---------------------------------|---------------------------------|
--7--------------------------6S--|--7------------------------------|
-----0-0-0-0-0-0-0-0-0-0-0-0-----|-----0-0-0-0-0-0-0-0-0-0-0-0-0-0-|


  E.  E.  E  E.  E.  E       E.  E.  E  E.  E.  E
-------------------------||-------------------------||
------------------------*||------------------------*||
--3---3---3--6---6---6--*||--3---3---3--6---6---6--*||
-------------------------||-------------------------||


  E.  E.  E  E.  E.  E       E.  E.  E  E.  E.  E
-------------------------||------------------------|
------------------------*||------------------------|
--3---3---3--6---6---6--*||--3---3---3--6---6---6--|
-------------------------||------------------------|


  E  E  E  E  E  E  E  E     E  E  E  E  E  E  E  E
--------------------------|--------------------------|
--------------------------|--------------------------|
--------------------------|--------------------------|
--1--1--1--1--1--1--1--1--|--1--1--1--1--1--1--1--1--|


    E.  S E  E  Q    E  E     Q    Q    E   E  Q
|--------------------------|------------------------|
|*-------------------------|------------------------|
|*--------------7----------|-------5----4S--3-------|
|---0-----0--0-------0--0--|--3----------------0----|


  E.  S E  E  Q    E  E     Q    E  E  E  E  Q
-------------------------|------------------------|
-------------------------|------------------------|
--------------7----------|-------5--5--4--4--3----|
--0-----0--0-------0--0--|--3---------------------|


  E.  S E  E  Q    E  E     Q    Q    E   E  Q
-------------------------|------------------------|
-------------------------|------------------------|
--------------7----------|-------5----4S--3-------|
--0-----0--0-------0--0--|--3----------------0----|


  E.  S E  E  Q    E  E     Q    E  E  Q     Q
-------------------------|------------------------|
-------------------------|------------------------|
--------------7----------|-------5--5--4S----3----|
--0-----0--0-------0--0--|--3---------------------|


    E.  S E  E  Q    E  E     Q    Q    E   E  Q
|--------------------------|------------------------|
|*-------------------------|------------------------|
|*--------------7----------|-------5----4S--3-------|
|---0-----0--0-------0--0--|--3----------------0----|


  E.  S E  E  Q    E  E     Q    E  E  E  E  Q
-------------------------|------------------------|
-------------------------|------------------------|
--------------7----------|-------5--5--4--4--3----|
--0-----0--0-------0--0--|--3---------------------|


  E.  S E  E  Q    E  E     Q    Q    E   E  Q
-------------------------|------------------------|
-------------------------|------------------------|
--------------7----------|-------5----4S--3-------|
--0-----0--0-------0--0--|--3----------------0----|


  E.  S E  E  Q    E  E     Q    E  E  Q     Q
-------------------------|-------------------------||
-------------------------|------------------------*||
--------------7----------|-------5--5--4S----3----*||
--0-----0--0-------0--0--|--3----------------------||


  E  E  E  E  E  E  E  E     E  E  E  E  E  E  E  E
--------------------------|--------------------------|-----|-----|
--------------------------|--------------------------|-----|-----|
--------------------------|--------------------------|-----|-----|
--1--1--1--1--1--1--1--1--|--1--1--1--1--1--1--1--1--|-----|-----|


  E  S S S S E  E  S S S S E     E  S S S S E  E.  E.  E
------------------------------|---------------------------|
------------------------------|---------------------------|
------------------------------|--5--5-5-5-5-5--7---7---8--|
--0--0-0-0-0-0--6--6-6-6-6-6--|---------------------------|


  E  S S S S E  E  S S S S E     E  S S S S E  E.  E.  E
------------------------------|---------------------------|
------------------------------|---------------------------|
------------------------------|--5--5-5-5-5-5--8---8---7--|
--0--0-0-0-0-0--6--6-6-6-6-6--|---------------------------|


  E  S S S S E  E  S S S S E     E  S S S S E  E.  E.  E
------------------------------|---------------------------|
------------------------------|---------------------------|
------------------------------|--5--5-5-5-5-5--7---7---8--|
--0--0-0-0-0-0--6--6-6-6-6-6--|---------------------------|


  E  S S S S E  E  S S S S E     E  S S S S E  E.  E.  E
------------------------------|---------------------------|
------------------------------|---------------------------|
------------------------------|--5--5-5-5-5-5--8---8---7--|
--0--0-0-0-0-0--6--6-6-6-6-6--|---------------------------|


  E  S S S S E  E  S S S S E     E  S S S S E  E.  E.  E
------------------------------|---------------------------|
------------------------------|---------------------------|
------------------------------|--5--5-5-5-5-5--7---7---8--|
--0--0-0-0-0-0--6--6-6-6-6-6--|---------------------------|


  E  S S S S E  E  S S S S E     E  S S S S E  E.  E.  E
------------------------------|---------------------------|
------------------------------|---------------------------|
------------------------------|--5--5-5-5-5-5--8---8---7--|
--0--0-0-0-0-0--6--6-6-6-6-6--|---------------------------|


  E  S S S S E  E  S S S S E     E  S S S S E  E.  E.  E
------------------------------|---------------------------|
------------------------------|---------------------------|
------------------------------|--5--5-5-5-5-5--7---7---8--|
--0--0-0-0-0-0--6--6-6-6-6-6--|---------------------------|


  E  S S S S E  E  S S S S E     E  S S S S E  E  S S S S E
------------------------------|------------------------------|
------------------------------|------------------------------|
--7--7-7-7-7-7--7--7-7-7-7-7--|--7--7-7-7-7-7--7--7-7-7-7-7--|
------------------------------|------------------------------|


  E  S S S S E  E  S S S S E     E   E   E   E   E   E   E   E
------------------------------|---------------------------------|
------------------------------|---------------------------------|
--7--7-7-7-7-7--7--7-7-7-7-7--|--7S--6S--5S--4S--3S--2S--1S--0--|
------------------------------|---------------------------------|


    E  S S S S S S S S S S S S E     E  S S S S S S S S S S S S E
|---------------------------------|---------------------------------|
|*--------------------------------|---------------------------------|
|*--7--------------------------6--|--7--------------------------6S--|
|------0-0-0-0-0-0-0-0-0-0-0-0----|-----0-0-0-0-0-0-0-0-0-0-0-0-----|


  E  S S S S S S S S S S S S S S    E.  E.  E  E.  E.  E
---------------------------------|-------------------------||
---------------------------------|------------------------*||
--7------------------------------|--3---3---3--6---6---6--*||
-----0-0-0-0-0-0-0-0-0-0-0-0-0-0-|-------------------------||


  E.  E.  E  E.  E.  E       E.  E.  E  E.  E.  E
-------------------------||-------------------------||
------------------------*||------------------------*||
--3---3---3--6---6---6--*||--3---3---3--6---6---6--*||
-------------------------||-------------------------||


  E.  E.  E  E.  E.  E     H        H
------------------------|--------------------|-----------|-----------|
------------------------|--------------------|-----------|-----------|
--3---3---3--6---6---6--|--7-----------------|-----------|-----------|
------------------------|--------------------|-----------|-----------|


-----------|-----------|-----------|-----------|-----------|
-----------|-----------|-----------|-----------|-----------|
-----------|-----------|-----------|-----------|-----------|
-----------|-----------|-----------|-----------|-----------|


                          E  S S S S S S S S S S S S E
-----------|-----------|--------------------------------|
-----------|-----------|--------------------------------|
-----------|-----------|--7--------------------------6--|
-----------|-----------|-----0-0-0-0-0-0-0-0-0-0-0-0----|


  E  S S S S S S S S S S S S E      E  S S S S S S S S S S S S S S
---------------------------------|---------------------------------|
---------------------------------|---------------------------------|
--7--------------------------6S--|--7------------------------------|
-----0-0-0-0-0-0-0-0-0-0-0-0-----|-----0-0-0-0-0-0-0-0-0-0-0-0-0-0-|


  E.  E.  E  E.  E.  E     H        H
------------------------|--------------------||
------------------------|--------------------||
--3---3---3--6---6---6--|--7-----------------||
------------------------|--------------------||


Duration Legend
---------------
W - whole
H - half
Q - quarter
E - 8th
S - 16th
T - 32nd
X - 64th
. - note dotted
|-n-|  - n-tuplets


Tablature Legend
----------------
L - tied note
x - dead note
g - grace note
(n) - ghost note
> - accentuded note
NH - natural harmonic
AH - artificial harmonic
TH - tapped harmonic
SH - semi harmonic
PH - pitch harmonic
h - hammer on
p - pull off
b - bend
br - bendRelease
pb - preBend
pbr - preBendRelease
brb - bendReleaseBend
n/ - tremolo bar dip
n - tremolo bar dive
-/n - tremolo bar Release up
/n - tremolo bar inverted dip
/n - tremolo bar return
-n - tremolo bar Release down
S - shift slide
s - legato slide
/ -  slide into from below or out of upwards
 -  slide into from above or out of downwards
~ - vibrato
W - wide vibrato
tr - trill
TP - tremolo picking
T - tapping
S - slap
P - pop
< - fade in
^ - brush up
v - brush down
Suggest correction
Give kudos to tab author, rate the tab!
1 2 3 4 5
comments
print report bad tab
guest
You may want to rate the tab now too:
select rating
Wanna post a correction for this tab? Suggest correction