Oops, an error
Loading. Please wait.

Nos Vimos En Berlin Chords

version 1
version 1

Whole song

Interactive

59 views 1 this week
no commentswrite comment
1 2 3 4 5
3 more votes to show rating
add to favorites
launch autoscroll
font size
0
reset
transpose
0
reset
display chords
guitar tuner
Autoscroll
slow
fast
+/-
esc
set tempo
stop
Help us to improve Ultimate-Guitar.com Take our survey!
×
+ Tabulados de made in spain!                   +
+ [                        +
+++++++++++++++++++++++++++++++++++++++++++++++++

Verso:

 e |----------------------------------|
 B |----------------------------------|
 G |---9---8-9---8-9---5*---8*-9------|
 D |---9---8-9---8-9---5*---8*-9------|
 A |---7---6-7---6-7---3*---6*-7------|
 E |----------------------------------|

 * :- 3 VECES CADA ACORDE


Salida:

 e |--------------------|
 B |--------------------|
 G |---5*----8*---------|
 D |---5*----8*---3-----|
 A |---3*----6*---3-----|
 E |--------------1-----|

 * :- 3 VECES CADA ACORDE


 e |---------------------------------|
 B |---------------------------------|
 G |---------------7\6\5-------------|
 D |----2*---------7\6\5-------------|
 A |----2*---------5\4\3-------------|
 E |---------------------------------|

 * :- 5 VECES CADA ACORDE


      Los ritmos es mejor sacárselos de oído.
Suggest correction
Give kudos to tab author, rate the tab!
1 2 3 4 5
comments
print report bad tab
guest
You may want to rate the tab now too:
select rating
Wanna post a correction for this tab? Suggest correction