Oops, an error
Loading. Please wait.

Nos Vimos En Berlin Tab

version 2
version 2

Whole song

Interactive

91 views 1 this week
no commentswrite comment
1 2 3 4 5
3 more votes to show rating
add to favorites
launch autoscroll
font size
0
reset
how to read this tab
guitar tuner
backing track
0:00
0:00
×
Best way to learn
"Nos Vimos En Berlin"
Autoscroll
slow
fast
+/-
esc
set tempo
stop
INTRO

-----------------------------
-----------------------------
-----------------------------
--9--8-9--8-9--5-5-5--8-8-8--
--7--6-7--6-7--3-3-3--6-6-6--
-----------------------------


VERSO

1) (Que vueltas dá la vida...)

-----------------------------------------
-----------------------------------------
-----------------------------------------
--9------8-9------8-9------5-5-5--8-8-8--
--7------6-7------6-7------3-3-3--6-6-6--
-----0*-------0*-------0*----------------

2) (¡Ay!)

------------------------------------------------------------
------------------------------------------------------------
------------------------------------------------------------
--9------8-9------10-9------5-5-5--8-8-8---9------10-9------
--7------6-7-------8-7------3-3-3--6-6-6---7-------8-7------
-----0*-------0*--------0*--------------------0*--------0*--

-----------------------
-----------------------
-----------------------
-8-9------5-5-5--8-8-8-
-6-7------3-3-3--6-6-6-
------0*---------------


PRE-CHORUS

------
------
------
------
--3---
--1*--
  PM


CHORUS

1) (Fue sólo ayer...)

------------------------------------------------------------
------------------------------------------------------------
------------------------------------------------------------
----------9------------7--5s4--------------9----------7-6-5-
--2-------7-------5s4--5--3s2--2---2-------7-------5--5-4-3-
--0--0-0-----0-0--3s2----------0---0--0-0-----0-0--3--------
     PM.     PM.                      PM.     PM.


POST-CHORUS (Ahora quién...)

------------------------------------------
------------------------------------------
------------------------------------------
------3---6---9---10------3---7---10---9--
------1*--4*--7*---8------1*--5*---8*--7--
--0*-------------------0*-----------------

------------------------------------------------------------
------------------------------------------------------------


Nos vimos en Berlín

(nuestro atake en esta canción va dirigido 
exclusivamente a los opresores del pueblo palestino) 

Ké vueltas da la vida, pero ké haces tú 
akí, es que ya no te acuerdas, nos vimos 
en Berlín. 

Fue una madrugada de akel invierno 
hostil, en una mazmorra, a punto de 
morir 

No sabes si llorabas, de rabia o de 
dolor, yo vi caer tus lágrimas entre 
sangre y sudor. 

Fue sólo ayer cuando el nazi disparó en 
tu sien, sólo ayer, el campo de 
concentración, sí fue, sólo ayer 
torturas y persecución, fue sólo ayer, 
suplicando de rodillas tu perdón. 

Ahora kién, kién es el asesino 
ahora kién, kién mata sin razón 
ahora quién utiliza las torturas 
ahora tú judío cabrón. 

Ké vueltas da la vida, pero ké haces tú 
akí, esque ya no te acuerdas, nos vimos 
en berlín. 

Fue una madrugada de akel invierno 
hostil, en una mazmorra, a punto de 
morir. 

No sabes si llorabas, de rabia o de 
dolor, yo vi caer tus lágrimas entre 
sangre y sudor, haz el golfo y no la 
guerra 
¡¡NOOOOOOOOOOOOOOOOEEEEEE 
JUDÍO CABRÓN!!
Suggest correction
Give kudos to tab author, rate the tab!
1 2 3 4 5
comments
print report bad tab
guest
You may want to rate the tab now too:
select rating
Wanna post a correction for this tab? Suggest correction